ISO-10303-21;
HEADER;
/* Generated by software containing ST-Developer
 * from STEP Tools, Inc. (www.steptools.com) 
 */

FILE_DESCRIPTION(
/* description */ (''),
/* implementation_level */ '2;1');

FILE_NAME(
/* name */ 
'F:\\User\\Daten\\DWG\\Anw\\FW\\Zwischenspeicher\\86000100_BFS_M_1000.
stp',
/* time_stamp */ '2014-12-05T10:57:30+01:00',
/* author */ ('Watermann'),
/* organization */ ('Fa. Bopla'),
/* preprocessor_version */ 'ST-DEVELOPER v15.6',
/* originating_system */ 'Autodesk Inventor 2015',
/* authorisation */ '');

FILE_SCHEMA (('AUTOMOTIVE_DESIGN { 1 0 10303 214 3 1 1 }'));
ENDSEC;

DATA;
#10=MECHANICAL_DESIGN_GEOMETRIC_PRESENTATION_REPRESENTATION('',(#13),#345);
#11=SHAPE_REPRESENTATION_RELATIONSHIP('SRR','None',#354,#12);
#12=ADVANCED_BREP_SHAPE_REPRESENTATION($,(#14),#344);
#13=STYLED_ITEM('',(#363),#14);
#14=MANIFOLD_SOLID_BREP('Volumenk\X\F6rper1',#181);
#15=CYLINDRICAL_SURFACE('',#206,1.25);
#16=SPHERICAL_SURFACE('',#196,5.);
#17=SPHERICAL_SURFACE('',#203,5.);
#18=FACE_BOUND('',#43,.T.);
#19=FACE_BOUND('',#46,.T.);
#20=FACE_BOUND('',#48,.T.);
#21=FACE_BOUND('',#53,.T.);
#22=CONICAL_SURFACE('',#193,2.31234626955276,5.71059313750106);
#23=TOROIDAL_SURFACE('',#190,2.04767517544397,0.199999999999976);
#24=TOROIDAL_SURFACE('',#200,2.17900248757759,0.199999999999983);
#25=TOROIDAL_SURFACE('',#201,2.04767517544397,0.199999999999976);
#26=FACE_OUTER_BOUND('',#38,.T.);
#27=FACE_OUTER_BOUND('',#39,.T.);
#28=FACE_OUTER_BOUND('',#40,.T.);
#29=FACE_OUTER_BOUND('',#41,.T.);
#30=FACE_OUTER_BOUND('',#42,.T.);
#31=FACE_OUTER_BOUND('',#44,.T.);
#32=FACE_OUTER_BOUND('',#45,.T.);
#33=FACE_OUTER_BOUND('',#47,.T.);
#34=FACE_OUTER_BOUND('',#49,.T.);
#35=FACE_OUTER_BOUND('',#50,.T.);
#36=FACE_OUTER_BOUND('',#51,.T.);
#37=FACE_OUTER_BOUND('',#52,.T.);
#38=EDGE_LOOP('',(#120,#121,#122,#123,#124,#125));
#39=EDGE_LOOP('',(#126,#127,#128,#129));
#40=EDGE_LOOP('',(#130,#131,#132,#133,#134,#135));
#41=EDGE_LOOP('',(#136,#137,#138,#139));
#42=EDGE_LOOP('',(#140));
#43=EDGE_LOOP('',(#141,#142,#143,#144,#145,#146,#147,#148));
#44=EDGE_LOOP('',(#149,#150));
#45=EDGE_LOOP('',(#151));
#46=EDGE_LOOP('',(#152));
#47=EDGE_LOOP('',(#153));
#48=EDGE_LOOP('',(#154));
#49=EDGE_LOOP('',(#155,#156,#157,#158));
#50=EDGE_LOOP('',(#159,#160));
#51=EDGE_LOOP('',(#161));
#52=EDGE_LOOP('',(#162));
#53=EDGE_LOOP('',(#163));
#54=CIRCLE('',#184,4.97970882682914);
#55=CIRCLE('',#186,2.27999999999997);
#56=CIRCLE('',#187,2.27999999999997);
#57=CIRCLE('',#189,4.97970882682914);
#58=CIRCLE('',#191,2.1329949744208);
#59=CIRCLE('',#192,2.24668261348595);
#60=CIRCLE('',#194,2.37800992561957);
#61=CIRCLE('',#195,2.24668261348595);
#62=CIRCLE('',#198,2.17900248757758);
#63=CIRCLE('',#199,1.25);
#64=CIRCLE('',#202,2.1329949744208);
#65=CIRCLE('',#205,1.25);
#66=B_SPLINE_CURVE_WITH_KNOTS('',3,(#273,#274,#275,#276,#277,#278,#279,
#280),.UNSPECIFIED.,.F.,.F.,(4,2,2,4),(0.0985474098378816,0.105193303054816,
0.112624398151102,0.118058883558649),.UNSPECIFIED.);
#67=B_SPLINE_CURVE_WITH_KNOTS('',3,(#283,#284,#285,#286,#287,#288,#289,
#290),.UNSPECIFIED.,.F.,.F.,(4,2,2,4),(0.00191901433889015,0.00735349974643724,
0.0147845948427233,0.0214304880596573),.UNSPECIFIED.);
#68=B_SPLINE_CURVE_WITH_KNOTS('',3,(#301,#302,#303,#304,#305,#306,#307,
#308),.UNSPECIFIED.,.F.,.F.,(4,2,2,4),(0.0985474098378814,0.105193303054815,
0.112624398151101,0.118058883558648),.UNSPECIFIED.);
#69=B_SPLINE_CURVE_WITH_KNOTS('',3,(#312,#313,#314,#315,#316,#317,#318,
#319),.UNSPECIFIED.,.F.,.F.,(4,2,2,4),(0.00191901433889015,0.00735349974643724,
0.0147845948427233,0.0214304880596573),.UNSPECIFIED.);
#70=LINE('',#267,#76);
#71=LINE('',#269,#77);
#72=LINE('',#271,#78);
#73=LINE('',#295,#79);
#74=LINE('',#299,#80);
#75=LINE('',#320,#81);
#76=VECTOR('',#211,0.334903809048013);
#77=VECTOR('',#212,4.47030200322077);
#78=VECTOR('',#213,0.334903809048013);
#79=VECTOR('',#220,4.47030200322078);
#80=VECTOR('',#225,0.334903809048013);
#81=VECTOR('',#228,0.334903809048013);
#82=VERTEX_POINT('',#265);
#83=VERTEX_POINT('',#266);
#84=VERTEX_POINT('',#268);
#85=VERTEX_POINT('',#270);
#86=VERTEX_POINT('',#272);
#87=VERTEX_POINT('',#281);
#88=VERTEX_POINT('',#292);
#89=VERTEX_POINT('',#294);
#90=VERTEX_POINT('',#298);
#91=VERTEX_POINT('',#300);
#92=VERTEX_POINT('',#309);
#93=VERTEX_POINT('',#311);
#94=VERTEX_POINT('',#325);
#95=VERTEX_POINT('',#330);
#96=VERTEX_POINT('',#332);
#97=VERTEX_POINT('',#339);
#98=EDGE_CURVE('',#82,#83,#70,.T.);
#99=EDGE_CURVE('',#82,#84,#71,.T.);
#100=EDGE_CURVE('',#85,#84,#72,.T.);
#101=EDGE_CURVE('',#86,#85,#66,.T.);
#102=EDGE_CURVE('',#87,#86,#54,.T.);
#103=EDGE_CURVE('',#83,#87,#67,.T.);
#104=EDGE_CURVE('',#88,#82,#55,.T.);
#105=EDGE_CURVE('',#88,#89,#73,.T.);
#106=EDGE_CURVE('',#84,#89,#56,.T.);
#107=EDGE_CURVE('',#90,#88,#74,.T.);
#108=EDGE_CURVE('',#91,#90,#68,.T.);
#109=EDGE_CURVE('',#92,#91,#57,.T.);
#110=EDGE_CURVE('',#93,#92,#69,.T.);
#111=EDGE_CURVE('',#89,#93,#75,.T.);
#112=EDGE_CURVE('',#86,#87,#58,.T.);
#113=EDGE_CURVE('',#85,#83,#59,.T.);
#114=EDGE_CURVE('',#94,#94,#60,.T.);
#115=EDGE_CURVE('',#90,#93,#61,.T.);
#116=EDGE_CURVE('',#95,#95,#62,.T.);
#117=EDGE_CURVE('',#96,#96,#63,.T.);
#118=EDGE_CURVE('',#91,#92,#64,.T.);
#119=EDGE_CURVE('',#97,#97,#65,.T.);
#120=ORIENTED_EDGE('',*,*,#98,.F.);
#121=ORIENTED_EDGE('',*,*,#99,.T.);
#122=ORIENTED_EDGE('',*,*,#100,.F.);
#123=ORIENTED_EDGE('',*,*,#101,.F.);
#124=ORIENTED_EDGE('',*,*,#102,.F.);
#125=ORIENTED_EDGE('',*,*,#103,.F.);
#126=ORIENTED_EDGE('',*,*,#104,.F.);
#127=ORIENTED_EDGE('',*,*,#105,.T.);
#128=ORIENTED_EDGE('',*,*,#106,.F.);
#129=ORIENTED_EDGE('',*,*,#99,.F.);
#130=ORIENTED_EDGE('',*,*,#107,.F.);
#131=ORIENTED_EDGE('',*,*,#108,.F.);
#132=ORIENTED_EDGE('',*,*,#109,.F.);
#133=ORIENTED_EDGE('',*,*,#110,.F.);
#134=ORIENTED_EDGE('',*,*,#111,.F.);
#135=ORIENTED_EDGE('',*,*,#105,.F.);
#136=ORIENTED_EDGE('',*,*,#103,.T.);
#137=ORIENTED_EDGE('',*,*,#112,.F.);
#138=ORIENTED_EDGE('',*,*,#101,.T.);
#139=ORIENTED_EDGE('',*,*,#113,.T.);
#140=ORIENTED_EDGE('',*,*,#114,.T.);
#141=ORIENTED_EDGE('',*,*,#107,.T.);
#142=ORIENTED_EDGE('',*,*,#104,.T.);
#143=ORIENTED_EDGE('',*,*,#98,.T.);
#144=ORIENTED_EDGE('',*,*,#113,.F.);
#145=ORIENTED_EDGE('',*,*,#100,.T.);
#146=ORIENTED_EDGE('',*,*,#106,.T.);
#147=ORIENTED_EDGE('',*,*,#111,.T.);
#148=ORIENTED_EDGE('',*,*,#115,.F.);
#149=ORIENTED_EDGE('',*,*,#102,.T.);
#150=ORIENTED_EDGE('',*,*,#112,.T.);
#151=ORIENTED_EDGE('',*,*,#116,.F.);
#152=ORIENTED_EDGE('',*,*,#117,.T.);
#153=ORIENTED_EDGE('',*,*,#116,.T.);
#154=ORIENTED_EDGE('',*,*,#114,.F.);
#155=ORIENTED_EDGE('',*,*,#108,.T.);
#156=ORIENTED_EDGE('',*,*,#115,.T.);
#157=ORIENTED_EDGE('',*,*,#110,.T.);
#158=ORIENTED_EDGE('',*,*,#118,.F.);
#159=ORIENTED_EDGE('',*,*,#109,.T.);
#160=ORIENTED_EDGE('',*,*,#118,.T.);
#161=ORIENTED_EDGE('',*,*,#119,.F.);
#162=ORIENTED_EDGE('',*,*,#119,.T.);
#163=ORIENTED_EDGE('',*,*,#117,.F.);
#164=PLANE('',#183);
#165=PLANE('',#185);
#166=PLANE('',#188);
#167=PLANE('',#197);
#168=PLANE('',#204);
#169=ADVANCED_FACE('',(#26),#164,.F.);
#170=ADVANCED_FACE('',(#27),#165,.F.);
#171=ADVANCED_FACE('',(#28),#166,.F.);
#172=ADVANCED_FACE('',(#29),#23,.T.);
#173=ADVANCED_FACE('',(#30,#18),#22,.T.);
#174=ADVANCED_FACE('',(#31),#16,.T.);
#175=ADVANCED_FACE('',(#32,#19),#167,.T.);
#176=ADVANCED_FACE('',(#33,#20),#24,.T.);
#177=ADVANCED_FACE('',(#34),#25,.T.);
#178=ADVANCED_FACE('',(#35),#17,.T.);
#179=ADVANCED_FACE('',(#36),#168,.T.);
#180=ADVANCED_FACE('',(#37,#21),#15,.T.);
#181=CLOSED_SHELL('',(#169,#170,#171,#172,#173,#174,#175,#176,#177,#178,
#179,#180));
#182=AXIS2_PLACEMENT_3D('placement',#263,#207,#208);
#183=AXIS2_PLACEMENT_3D('',#264,#209,#210);
#184=AXIS2_PLACEMENT_3D('',#282,#214,#215);
#185=AXIS2_PLACEMENT_3D('',#291,#216,#217);
#186=AXIS2_PLACEMENT_3D('',#293,#218,#219);
#187=AXIS2_PLACEMENT_3D('',#296,#221,#222);
#188=AXIS2_PLACEMENT_3D('',#297,#223,#224);
#189=AXIS2_PLACEMENT_3D('',#310,#226,#227);
#190=AXIS2_PLACEMENT_3D('',#321,#229,#230);
#191=AXIS2_PLACEMENT_3D('',#322,#231,#232);
#192=AXIS2_PLACEMENT_3D('',#323,#233,#234);
#193=AXIS2_PLACEMENT_3D('',#324,#235,#236);
#194=AXIS2_PLACEMENT_3D('',#326,#237,#238);
#195=AXIS2_PLACEMENT_3D('',#327,#239,#240);
#196=AXIS2_PLACEMENT_3D('',#328,#241,#242);
#197=AXIS2_PLACEMENT_3D('',#329,#243,#244);
#198=AXIS2_PLACEMENT_3D('',#331,#245,#246);
#199=AXIS2_PLACEMENT_3D('',#333,#247,#248);
#200=AXIS2_PLACEMENT_3D('',#334,#249,#250);
#201=AXIS2_PLACEMENT_3D('',#335,#251,#252);
#202=AXIS2_PLACEMENT_3D('',#336,#253,#254);
#203=AXIS2_PLACEMENT_3D('',#337,#255,#256);
#204=AXIS2_PLACEMENT_3D('',#338,#257,#258);
#205=AXIS2_PLACEMENT_3D('',#340,#259,#260);
#206=AXIS2_PLACEMENT_3D('',#341,#261,#262);
#207=DIRECTION('axis',(0.,0.,1.));
#208=DIRECTION('refdir',(1.,0.,0.));
#209=DIRECTION('center_axis',(1.42781923235173E-16,-1.,0.));
#210=DIRECTION('ref_axis',(1.,1.4432899320127E-16,0.));
#211=DIRECTION('',(-0.994834505129099,2.07190653448568E-16,-0.101510134491793));
#212=DIRECTION('',(0.,0.,-1.));
#213=DIRECTION('',(0.994834505129099,-2.07190653448568E-16,-0.101510134491793));
#214=DIRECTION('center_axis',(1.42781923235173E-16,-1.,0.));
#215=DIRECTION('ref_axis',(0.,0.,1.));
#216=DIRECTION('center_axis',(1.,0.,0.));
#217=DIRECTION('ref_axis',(0.,1.,0.));
#218=DIRECTION('center_axis',(1.,0.,0.));
#219=DIRECTION('ref_axis',(0.,-1.,0.));
#220=DIRECTION('',(0.,0.,-1.));
#221=DIRECTION('center_axis',(1.,0.,0.));
#222=DIRECTION('ref_axis',(0.,-1.,0.));
#223=DIRECTION('center_axis',(0.,1.,0.));
#224=DIRECTION('ref_axis',(-1.,0.,0.));
#225=DIRECTION('',(0.994834505129098,2.07190653448568E-16,0.101510134491793));
#226=DIRECTION('center_axis',(0.,1.,0.));
#227=DIRECTION('ref_axis',(0.,0.,-1.));
#228=DIRECTION('',(-0.994834505129098,-2.07190653448568E-16,0.101510134491793));
#229=DIRECTION('center_axis',(-1.,0.,0.));
#230=DIRECTION('ref_axis',(0.,0.,1.));
#231=DIRECTION('center_axis',(-1.,0.,0.));
#232=DIRECTION('ref_axis',(0.,0.,1.));
#233=DIRECTION('center_axis',(-1.,0.,0.));
#234=DIRECTION('ref_axis',(0.,0.,1.));
#235=DIRECTION('center_axis',(1.,0.,0.));
#236=DIRECTION('ref_axis',(0.,-1.,0.));
#237=DIRECTION('center_axis',(-1.,0.,0.));
#238=DIRECTION('ref_axis',(0.,0.,1.));
#239=DIRECTION('center_axis',(-1.,0.,0.));
#240=DIRECTION('ref_axis',(0.,0.,1.));
#241=DIRECTION('center_axis',(6.12323399573677E-17,0.,1.));
#242=DIRECTION('ref_axis',(1.,0.,0.));
#243=DIRECTION('center_axis',(1.,0.,0.));
#244=DIRECTION('ref_axis',(0.,0.,-1.));
#245=DIRECTION('center_axis',(-1.,0.,0.));
#246=DIRECTION('ref_axis',(0.,0.,1.));
#247=DIRECTION('center_axis',(-1.,0.,0.));
#248=DIRECTION('ref_axis',(0.,0.,1.));
#249=DIRECTION('center_axis',(-1.,0.,0.));
#250=DIRECTION('ref_axis',(0.,0.,1.));
#251=DIRECTION('center_axis',(-1.,0.,0.));
#252=DIRECTION('ref_axis',(0.,0.,1.));
#253=DIRECTION('center_axis',(-1.,0.,0.));
#254=DIRECTION('ref_axis',(0.,0.,1.));
#255=DIRECTION('center_axis',(6.12323399573677E-17,0.,1.));
#256=DIRECTION('ref_axis',(1.,0.,0.));
#257=DIRECTION('center_axis',(1.,0.,0.));
#258=DIRECTION('ref_axis',(0.,0.,-1.));
#259=DIRECTION('center_axis',(-1.,0.,0.));
#260=DIRECTION('ref_axis',(0.,0.,1.));
#261=DIRECTION('center_axis',(-1.,0.,0.));
#262=DIRECTION('ref_axis',(0.,-1.,0.));
#263=CARTESIAN_POINT('',(0.,0.,0.));
#264=CARTESIAN_POINT('Origin',(-5.,-0.449999999999946,0.));
#265=CARTESIAN_POINT('',(-4.0280430818293,-0.449999999999946,2.23515100161038));
#266=CARTESIAN_POINT('',(-4.36121694696943,-0.449999999999946,2.20115487091211));
#267=CARTESIAN_POINT('',(-4.19463001439936,-0.449999999999946,2.21815293626125));
#268=CARTESIAN_POINT('',(-4.0280430818293,-0.449999999999946,-2.23515100161038));
#269=CARTESIAN_POINT('',(-4.0280430818293,-0.449999999999946,0.));
#270=CARTESIAN_POINT('',(-4.36121694696943,-0.449999999999946,-2.20115487091211));
#271=CARTESIAN_POINT('',(-4.19463001439936,-0.449999999999946,-2.21815293626125));
#272=CARTESIAN_POINT('',(-4.52220437829711,-0.449999999999946,-2.08498622559105));
#273=CARTESIAN_POINT('Ctrl Pts',(-4.52220437829711,-0.449999999999946,-2.08498622559105));
#274=CARTESIAN_POINT('Ctrl Pts',(-4.51258284088903,-0.449999999999946,-2.10585473688322));
#275=CARTESIAN_POINT('Ctrl Pts',(-4.4976758577545,-0.449999999999946,-2.12721834157175));
#276=CARTESIAN_POINT('Ctrl Pts',(-4.46470809549407,-0.449999999999946,-2.1606087924038));
#277=CARTESIAN_POINT('Ctrl Pts',(-4.44011199179511,-0.449999999999946,-2.1772992229588));
#278=CARTESIAN_POINT('Ctrl Pts',(-4.40055993392971,-0.449999999999946,-2.1938757412823));
#279=CARTESIAN_POINT('Ctrl Pts',(-4.38048574583911,-0.449999999999946,-2.19918813626861));
#280=CARTESIAN_POINT('Ctrl Pts',(-4.36121694696943,-0.449999999999946,-2.20115487091211));
#281=CARTESIAN_POINT('',(-4.52220437829711,-0.449999999999946,2.08498622559105));
#282=CARTESIAN_POINT('Origin',(6.42518654558199E-17,-0.449999999999945,
0.));
#283=CARTESIAN_POINT('Ctrl Pts',(-4.36121694696943,-0.449999999999946,2.20115487091211));
#284=CARTESIAN_POINT('Ctrl Pts',(-4.38048574583911,-0.449999999999946,2.19918813626861));
#285=CARTESIAN_POINT('Ctrl Pts',(-4.40055993392971,-0.449999999999946,2.1938757412823));
#286=CARTESIAN_POINT('Ctrl Pts',(-4.44011199179511,-0.449999999999946,2.1772992229588));
#287=CARTESIAN_POINT('Ctrl Pts',(-4.46470809549407,-0.449999999999946,2.1606087924038));
#288=CARTESIAN_POINT('Ctrl Pts',(-4.4976758577545,-0.449999999999946,2.12721834157175));
#289=CARTESIAN_POINT('Ctrl Pts',(-4.51258284088903,-0.449999999999946,2.10585473688322));
#290=CARTESIAN_POINT('Ctrl Pts',(-4.52220437829711,-0.449999999999946,2.08498622559105));
#291=CARTESIAN_POINT('Origin',(-4.0280430818293,-0.449999999999946,0.));
#292=CARTESIAN_POINT('',(-4.0280430818293,0.449999999999928,2.23515100161039));
#293=CARTESIAN_POINT('Origin',(-4.0280430818293,0.,0.));
#294=CARTESIAN_POINT('',(-4.0280430818293,0.449999999999928,-2.23515100161039));
#295=CARTESIAN_POINT('',(-4.0280430818293,0.449999999999928,0.));
#296=CARTESIAN_POINT('Origin',(-4.0280430818293,0.,0.));
#297=CARTESIAN_POINT('Origin',(-4.0280430818293,0.449999999999928,0.));
#298=CARTESIAN_POINT('',(-4.36121694696943,0.449999999999928,2.20115487091211));
#299=CARTESIAN_POINT('',(-4.19463001439936,0.449999999999928,2.21815293626125));
#300=CARTESIAN_POINT('',(-4.52220437829711,0.449999999999928,2.08498622559106));
#301=CARTESIAN_POINT('Ctrl Pts',(-4.52220437829711,0.449999999999928,2.08498622559106));
#302=CARTESIAN_POINT('Ctrl Pts',(-4.51258284088903,0.449999999999928,2.10585473688322));
#303=CARTESIAN_POINT('Ctrl Pts',(-4.4976758577545,0.449999999999928,2.12721834157175));
#304=CARTESIAN_POINT('Ctrl Pts',(-4.46470809549407,0.449999999999928,2.16060879240381));
#305=CARTESIAN_POINT('Ctrl Pts',(-4.44011199179511,0.449999999999928,2.1772992229588));
#306=CARTESIAN_POINT('Ctrl Pts',(-4.40055993392971,0.449999999999928,2.1938757412823));
#307=CARTESIAN_POINT('Ctrl Pts',(-4.38048574583911,0.449999999999928,2.19918813626861));
#308=CARTESIAN_POINT('Ctrl Pts',(-4.36121694696943,0.449999999999928,2.20115487091211));
#309=CARTESIAN_POINT('',(-4.52220437829711,0.449999999999928,-2.08498622559106));
#310=CARTESIAN_POINT('Origin',(0.,0.449999999999928,0.));
#311=CARTESIAN_POINT('',(-4.36121694696943,0.449999999999928,-2.20115487091211));
#312=CARTESIAN_POINT('Ctrl Pts',(-4.36121694696943,0.449999999999928,-2.20115487091211));
#313=CARTESIAN_POINT('Ctrl Pts',(-4.38048574583911,0.449999999999928,-2.19918813626861));
#314=CARTESIAN_POINT('Ctrl Pts',(-4.40055993392971,0.449999999999928,-2.1938757412823));
#315=CARTESIAN_POINT('Ctrl Pts',(-4.44011199179511,0.449999999999928,-2.1772992229588));
#316=CARTESIAN_POINT('Ctrl Pts',(-4.46470809549407,0.449999999999928,-2.16060879240381));
#317=CARTESIAN_POINT('Ctrl Pts',(-4.4976758577545,0.449999999999928,-2.12721834157175));
#318=CARTESIAN_POINT('Ctrl Pts',(-4.51258284088903,0.449999999999928,-2.10585473688322));
#319=CARTESIAN_POINT('Ctrl Pts',(-4.52220437829711,0.449999999999928,-2.08498622559106));
#320=CARTESIAN_POINT('',(-4.19463001439936,0.449999999999928,-2.21815293626125));
#321=CARTESIAN_POINT('Origin',(-4.34131620316522,0.,0.));
#322=CARTESIAN_POINT('Origin',(-4.52220437829711,0.,0.));
#323=CARTESIAN_POINT('Origin',(-4.36121694696943,0.,0.));
#324=CARTESIAN_POINT('Origin',(-3.70458038630147,0.,0.));
#325=CARTESIAN_POINT('',(-3.04794382563351,-2.37800992561957,0.));
#326=CARTESIAN_POINT('Origin',(-3.04794382563351,0.,0.));
#327=CARTESIAN_POINT('Origin',(-4.36121694696943,0.,0.));
#328=CARTESIAN_POINT('Origin',(0.,0.,0.));
#329=CARTESIAN_POINT('Origin',(-2.8280430818293,-2.17900248757758,0.));
#330=CARTESIAN_POINT('',(-2.8280430818293,-2.17900248757758,0.));
#331=CARTESIAN_POINT('Origin',(-2.8280430818293,0.,0.));
#332=CARTESIAN_POINT('',(-2.82804308182937,-1.25,0.));
#333=CARTESIAN_POINT('Origin',(-2.82804308182937,0.,0.));
#334=CARTESIAN_POINT('Origin',(-3.02804308182929,0.,0.));
#335=CARTESIAN_POINT('Origin',(-4.34131620316522,0.,0.));
#336=CARTESIAN_POINT('Origin',(-4.52220437829711,0.,0.));
#337=CARTESIAN_POINT('Origin',(0.,0.,0.));
#338=CARTESIAN_POINT('Origin',(9.17195691817065,-1.25,0.));
#339=CARTESIAN_POINT('',(9.17195691817065,-1.25,0.));
#340=CARTESIAN_POINT('Origin',(9.17195691817065,0.,0.));
#341=CARTESIAN_POINT('Origin',(3.17195691817064,0.,0.));
#342=UNCERTAINTY_MEASURE_WITH_UNIT(LENGTH_MEASURE(0.01),#346,
'DISTANCE_ACCURACY_VALUE',
'Maximum model space distance between geometric entities at asserted c
onnectivities');
#343=UNCERTAINTY_MEASURE_WITH_UNIT(LENGTH_MEASURE(1.E-6),#346,
'DISTANCE_ACCURACY_VALUE',
'Maximum model space distance between geometric entities at asserted c
onnectivities');
#344=(
GEOMETRIC_REPRESENTATION_CONTEXT(3)
GLOBAL_UNCERTAINTY_ASSIGNED_CONTEXT((#342))
GLOBAL_UNIT_ASSIGNED_CONTEXT((#346,#349,#347))
REPRESENTATION_CONTEXT('','3D')
);
#345=(
GEOMETRIC_REPRESENTATION_CONTEXT(3)
GLOBAL_UNCERTAINTY_ASSIGNED_CONTEXT((#343))
GLOBAL_UNIT_ASSIGNED_CONTEXT((#346,#349,#347))
REPRESENTATION_CONTEXT('','3D')
);
#346=(
LENGTH_UNIT()
NAMED_UNIT(*)
SI_UNIT(.MILLI.,.METRE.)
);
#347=(
NAMED_UNIT(*)
SI_UNIT($,.STERADIAN.)
SOLID_ANGLE_UNIT()
);
#348=DIMENSIONAL_EXPONENTS(0.,0.,0.,0.,0.,0.,0.);
#349=(
CONVERSION_BASED_UNIT('degree',#351)
NAMED_UNIT(#348)
PLANE_ANGLE_UNIT()
);
#350=(
NAMED_UNIT(*)
PLANE_ANGLE_UNIT()
SI_UNIT($,.RADIAN.)
);
#351=PLANE_ANGLE_MEASURE_WITH_UNIT(PLANE_ANGLE_MEASURE(0.01745329252),#350);
#352=SHAPE_DEFINITION_REPRESENTATION(#353,#354);
#353=PRODUCT_DEFINITION_SHAPE('',$,#356);
#354=SHAPE_REPRESENTATION('',(#182),#344);
#355=PRODUCT_DEFINITION_CONTEXT('part definition',#360,'design');
#356=PRODUCT_DEFINITION('SHR_Z_M2_5x12_3Dsym','SHR_Z_M2_5x12_3Dsym',#357,
#355);
#357=PRODUCT_DEFINITION_FORMATION('',$,#362);
#358=PRODUCT_RELATED_PRODUCT_CATEGORY('SHR_Z_M2_5x12_3Dsym',
'SHR_Z_M2_5x12_3Dsym',(#362));
#359=APPLICATION_PROTOCOL_DEFINITION('international standard',
'automotive_design',2009,#360);
#360=APPLICATION_CONTEXT(
'Core Data for Automotive Mechanical Design Process');
#361=PRODUCT_CONTEXT('part definition',#360,'mechanical');
#362=PRODUCT('SHR_Z_M2_5x12_3Dsym','SHR_Z_M2_5x12_3Dsym',$,(#361));
#363=PRESENTATION_STYLE_ASSIGNMENT((#364));
#364=SURFACE_STYLE_USAGE(.BOTH.,#365);
#365=SURFACE_SIDE_STYLE($,(#366));
#366=SURFACE_STYLE_FILL_AREA(#367);
#367=FILL_AREA_STYLE($,(#368));
#368=FILL_AREA_STYLE_COLOUR($,#369);
#369=COLOUR_RGB('',0.749019607843137,0.749019607843137,0.749019607843137);
ENDSEC;
END-ISO-10303-21;
