ISO-10303-21;
HEADER;
/****************************************************************
 * Generated by software with PDE/Lib inside                    *
 * PDElib Version v51a, created Fri 05/18/2009                  *
 * International Technegroup Inc. (www.iti-oh.com)              *
 ****************************************************************/
FILE_DESCRIPTION((''),'2;1');
FILE_NAME('F:\\User\\Daten\\Internet-3D-Daten\\Alu Style\\94605050_AS 20-0100 DS-rot.stp','2009-10-28T09:58:44',('Kotzmaier'),(''),'Autodesk Inventor 2010','Autodesk Inventor 2010','');
FILE_SCHEMA(('AUTOMOTIVE_DESIGN { 1 0 10303 214 1 1 1 1 }'));
ENDSEC;
DATA;
#5=APPLICATION_CONTEXT('automotive design');
#6=APPLICATION_PROTOCOL_DEFINITION('International Standard','automotive_design',2001,#5);
#7=PRODUCT_CONTEXT('',#5,'mechanical');
#8=PRODUCT('1009754_3D','1009754_3D',$,(#7));
#9=PRODUCT_RELATED_PRODUCT_CATEGORY('part',$,(#8));
#10=PRODUCT_DEFINITION_FORMATION('',$,#8);
#11=PRODUCT_DEFINITION_CONTEXT('part definition',#5,'design');
#12=PRODUCT_DEFINITION('',$,#10,#11);
#18=(NAMED_UNIT(*)PLANE_ANGLE_UNIT()SI_UNIT($,.RADIAN.));
#19=DIMENSIONAL_EXPONENTS(0.0,0.0,0.0,0.0,0.0,0.0,0.0);
#20=PLANE_ANGLE_MEASURE_WITH_UNIT(PLANE_ANGLE_MEASURE(0.017453292500000),#18);
#24=(CONVERSION_BASED_UNIT('DEGREE',#20)NAMED_UNIT(#19)PLANE_ANGLE_UNIT());
#28=(NAMED_UNIT(*)SI_UNIT($,.STERADIAN.)SOLID_ANGLE_UNIT());
#32=(LENGTH_UNIT()NAMED_UNIT(*)SI_UNIT(.MILLI.,.METRE.));
#34=UNCERTAINTY_MEASURE_WITH_UNIT(LENGTH_MEASURE(0.010000000000000),#32,'DISTANCE_ACCURACY_VALUE','');
#36=(GEOMETRIC_REPRESENTATION_CONTEXT(3)GLOBAL_UNCERTAINTY_ASSIGNED_CONTEXT((#34))GLOBAL_UNIT_ASSIGNED_CONTEXT((#24,#28,#32))REPRESENTATION_CONTEXT('None','None'));
#37=AXIS2_PLACEMENT_3D('',#38,#39,#40);
#38=CARTESIAN_POINT('',(0.0,0.0,0.0));
#39=DIRECTION('',(0.0,0.0,1.0));
#40=DIRECTION('',(1.0,0.0,0.0));
#41=SHAPE_REPRESENTATION('',(#37),#36);
#42=PRODUCT_DEFINITION_SHAPE('','',#12);
#43=SHAPE_DEFINITION_REPRESENTATION(#42,#41);
#49=(NAMED_UNIT(*)PLANE_ANGLE_UNIT()SI_UNIT($,.RADIAN.));
#50=DIMENSIONAL_EXPONENTS(0.0,0.0,0.0,0.0,0.0,0.0,0.0);
#51=PLANE_ANGLE_MEASURE_WITH_UNIT(PLANE_ANGLE_MEASURE(0.017453292500000),#49);
#55=(CONVERSION_BASED_UNIT('DEGREE',#51)NAMED_UNIT(#50)PLANE_ANGLE_UNIT());
#59=(NAMED_UNIT(*)SI_UNIT($,.STERADIAN.)SOLID_ANGLE_UNIT());
#63=(LENGTH_UNIT()NAMED_UNIT(*)SI_UNIT(.MILLI.,.METRE.));
#65=UNCERTAINTY_MEASURE_WITH_UNIT(LENGTH_MEASURE(0.000001000000000),#63,'DISTANCE_ACCURACY_VALUE','');
#67=(GEOMETRIC_REPRESENTATION_CONTEXT(3)GLOBAL_UNCERTAINTY_ASSIGNED_CONTEXT((#65))GLOBAL_UNIT_ASSIGNED_CONTEXT((#55,#59,#63))REPRESENTATION_CONTEXT('','3D'));
#68=CARTESIAN_POINT('',(0.0,-24.631383018100543,98.400000000000020));
#69=DIRECTION('',(0.0,0.0,-1.0));
#70=DIRECTION('',(-1.0,0.0,0.0));
#71=AXIS2_PLACEMENT_3D('',#68,#69,#70);
#72=PLANE('',#71);
#73=CARTESIAN_POINT('',(-53.260283505121571,-10.982232897612871,98.400000000000020));
#74=VERTEX_POINT('',#73);
#75=CARTESIAN_POINT('',(-53.626630115885476,-11.284494640130617,98.400000000000020));
#76=VERTEX_POINT('',#75);
#77=CARTESIAN_POINT('',(-53.493190942717987,-11.073085115594987,98.400000000000020));
#78=DIRECTION('',(0.0,0.0,-1.000000000000000));
#79=DIRECTION('',(0.636415262602460,-0.771346623462268,0.0));
#80=AXIS2_PLACEMENT_3D('',#77,#78,#79);
#81=CIRCLE('',#80,0.250000000000000);
#82=EDGE_CURVE('',#74,#76,#81,.T.);
#83=ORIENTED_EDGE('',*,*,#82,.F.);
#84=CARTESIAN_POINT('',(-58.393141824305708,11.719466861411703,98.400000000000020));
#85=VERTEX_POINT('',#84);
#86=CARTESIAN_POINT('',(19.499999999999993,17.399999999999999,98.400000000000020));
#87=DIRECTION('',(0.0,0.0,1.0));
#88=DIRECTION('',(0.998015773863434,0.062964395651594,0.0));
#89=AXIS2_PLACEMENT_3D('',#86,#87,#88);
#90=CIRCLE('',#89,78.100000000000009);
#91=EDGE_CURVE('',#85,#74,#90,.T.);
#92=ORIENTED_EDGE('',*,*,#91,.F.);
#93=CARTESIAN_POINT('',(-58.853889190788529,11.834722509807774,98.400000000000020));
#94=VERTEX_POINT('',#93);
#95=CARTESIAN_POINT('',(-58.642479666252910,11.701283336640294,98.400000000000020));
#96=DIRECTION('',(0.0,0.0,-1.000000000000000));
#97=DIRECTION('',(0.242671974062754,0.970108402707907,0.0));
#98=AXIS2_PLACEMENT_3D('',#95,#96,#97);
#99=CIRCLE('',#98,0.250000000000000);
#100=EDGE_CURVE('',#94,#85,#99,.T.);
#101=ORIENTED_EDGE('',*,*,#100,.F.);
#102=CARTESIAN_POINT('',(-59.706905857619930,10.483276426359359,98.400000000000020));
#103=VERTEX_POINT('',#102);
#104=CARTESIAN_POINT('',(-59.706905857619930,10.483276426359357,98.400000000000020));
#105=DIRECTION('',(0.533756692669930,0.845638098142496,0.0));
#106=VECTOR('',#105,1.598137650629699);
#107=LINE('',#104,#106);
#108=EDGE_CURVE('',#103,#94,#107,.T.);
#109=ORIENTED_EDGE('',*,*,#108,.F.);
#110=CARTESIAN_POINT('',(-59.854705541097189,10.374943417254912,98.400000000000020));
#111=VERTEX_POINT('',#110);
#112=CARTESIAN_POINT('',(-59.918315382155555,10.616715599526840,98.400000000000020));
#113=DIRECTION('',(0.0,0.0,1.0));
#114=DIRECTION('',(0.591174060030851,-0.806544004222113,0.0));
#115=AXIS2_PLACEMENT_3D('',#112,#113,#114);
#116=CIRCLE('',#115,0.250000000000000);
#117=EDGE_CURVE('',#111,#103,#116,.T.);
#118=ORIENTED_EDGE('',*,*,#117,.F.);
#119=CARTESIAN_POINT('',(-59.978847309143063,10.342281933787723,98.400000000000020));
#120=VERTEX_POINT('',#119);
#121=CARTESIAN_POINT('',(-59.978847309143063,10.342281933787721,98.400000000000034));
#122=DIRECTION('',(0.967088729087719,0.254439364233408,0.0));
#123=VECTOR('',#122,0.128366471774498);
#124=LINE('',#121,#123);
#125=EDGE_CURVE('',#120,#111,#124,.T.);
#126=ORIENTED_EDGE('',*,*,#125,.F.);
#127=CARTESIAN_POINT('',(-60.164188055758956,10.077627336943744,98.400000000000020));
#128=VERTEX_POINT('',#127);
#129=CARTESIAN_POINT('',(-59.915237468084698,10.100509751515796,98.400000000000020));
#130=DIRECTION('',(0.0,0.0,-1.0));
#131=DIRECTION('',(-0.819111902587587,0.573633760372717,0.0));
#132=AXIS2_PLACEMENT_3D('',#129,#130,#131);
#133=CIRCLE('',#132,0.250000000000000);
#134=EDGE_CURVE('',#128,#120,#133,.T.);
#135=ORIENTED_EDGE('',*,*,#134,.F.);
#136=CARTESIAN_POINT('',(-55.565391868538406,-10.262012645915133,98.400000000000020));
#137=VERTEX_POINT('',#136);
#138=CARTESIAN_POINT('',(19.499999999999993,17.399999999999999,98.400000000000020));
#139=DIRECTION('',(0.0,0.0,-1.0));
#140=DIRECTION('',(-0.995477272467835,-0.095000000000000,0.0));
#141=AXIS2_PLACEMENT_3D('',#138,#139,#140);
#142=CIRCLE('',#141,80.0);
#143=EDGE_CURVE('',#137,#128,#142,.T.);
#144=ORIENTED_EDGE('',*,*,#143,.F.);
#145=CARTESIAN_POINT('',(-55.284222803151366,-10.421189291991634,98.400000000000020));
#146=VERTEX_POINT('',#145);
#147=CARTESIAN_POINT('',(-55.330812518949216,-10.175568856396644,98.400000000000020));
#148=DIRECTION('',(0.0,0.0,-1.000000000000000));
#149=DIRECTION('',(-0.492655283414951,-0.870224552470990,0.0));
#150=AXIS2_PLACEMENT_3D('',#147,#148,#149);
#151=CIRCLE('',#150,0.250000000000000);
#152=EDGE_CURVE('',#146,#137,#151,.T.);
#153=ORIENTED_EDGE('',*,*,#152,.F.);
#154=CARTESIAN_POINT('',(-55.158105088299223,-10.397267062239852,98.400000000000020));
#155=VERTEX_POINT('',#154);
#156=CARTESIAN_POINT('',(-55.158105088299223,-10.397267062239852,98.400000000000034));
#157=DIRECTION('',(-0.982481742379979,-0.186358863191425,0.0));
#158=VECTOR('',#157,0.128366471774461);
#159=LINE('',#156,#158);
#160=EDGE_CURVE('',#155,#146,#159,.T.);
#161=ORIENTED_EDGE('',*,*,#160,.F.);
#162=CARTESIAN_POINT('',(-54.978076199333884,-10.431477973299222,98.400000000000020));
#163=VERTEX_POINT('',#162);
#164=CARTESIAN_POINT('',(-55.111515372501366,-10.642887497834847,98.400000000000020));
#165=DIRECTION('',(0.0,0.0,1.0));
#166=DIRECTION('',(0.186689203554052,0.982419025302520,0.0));
#167=AXIS2_PLACEMENT_3D('',#164,#165,#166);
#168=CIRCLE('',#167,0.250000000000000);
#169=EDGE_CURVE('',#163,#155,#168,.T.);
#170=ORIENTED_EDGE('',*,*,#169,.F.);
#171=CARTESIAN_POINT('',(-53.626630115885476,-11.284494640130614,98.400000000000020));
#172=DIRECTION('',(-0.845638098142497,0.533756692669928,0.0));
#173=VECTOR('',#172,1.598137650629697);
#174=LINE('',#171,#173);
#175=EDGE_CURVE('',#76,#163,#174,.T.);
#176=ORIENTED_EDGE('',*,*,#175,.F.);
#177=EDGE_LOOP('',(#83,#92,#101,#109,#118,#126,#135,#144,#153,#161,#170,#176));
#178=FACE_OUTER_BOUND('',#177,.T.);
#179=ADVANCED_FACE('',(#178),#72,.F.);
#180=CARTESIAN_POINT('',(-59.915237468084698,10.100509751515796,0.0));
#181=DIRECTION('',(0.0,0.0,-1.0));
#182=DIRECTION('',(-0.819111902587587,0.573633760372717,0.0));
#183=AXIS2_PLACEMENT_3D('',#180,#181,#182);
#184=CYLINDRICAL_SURFACE('',#183,0.250000000000000);
#185=ORIENTED_EDGE('',*,*,#134,.T.);
#186=CARTESIAN_POINT('',(-59.978847309143063,10.342281933787721,-1.776357E-014));
#187=VERTEX_POINT('',#186);
#188=CARTESIAN_POINT('',(-59.978847309143063,10.342281933787723,98.400000000000020));
#189=DIRECTION('',(0.0,0.0,-1.0));
#190=VECTOR('',#189,98.400000000000034);
#191=LINE('',#188,#190);
#192=EDGE_CURVE('',#120,#187,#191,.T.);
#193=ORIENTED_EDGE('',*,*,#192,.T.);
#194=CARTESIAN_POINT('',(-60.164188055758956,10.077627336943744,0.0));
#195=VERTEX_POINT('',#194);
#196=CARTESIAN_POINT('',(-59.915237468084698,10.100509751515796,0.0));
#197=DIRECTION('',(0.0,0.0,1.0));
#198=DIRECTION('',(-0.819111902587587,0.573633760372717,0.0));
#199=AXIS2_PLACEMENT_3D('',#196,#197,#198);
#200=CIRCLE('',#199,0.250000000000000);
#201=EDGE_CURVE('',#187,#195,#200,.T.);
#202=ORIENTED_EDGE('',*,*,#201,.T.);
#203=CARTESIAN_POINT('',(-60.164188055758956,10.077627336943744,0.0));
#204=DIRECTION('',(0.0,0.0,1.0));
#205=VECTOR('',#204,98.400000000000020);
#206=LINE('',#203,#205);
#207=EDGE_CURVE('',#195,#128,#206,.T.);
#208=ORIENTED_EDGE('',*,*,#207,.T.);
#209=EDGE_LOOP('',(#185,#193,#202,#208));
#210=FACE_OUTER_BOUND('',#209,.T.);
#211=ADVANCED_FACE('',(#210),#184,.T.);
#212=CARTESIAN_POINT('',(-59.759468945787987,10.400000000000000,315.0));
#213=DIRECTION('',(-0.254439364233426,0.967088729087714,0.0));
#214=DIRECTION('',(0.0,0.0,1.0));
#215=AXIS2_PLACEMENT_3D('',#212,#213,#214);
#216=PLANE('',#215);
#217=ORIENTED_EDGE('',*,*,#125,.T.);
#218=CARTESIAN_POINT('',(-59.854705541097189,10.374943417254912,-1.776357E-014));
#219=VERTEX_POINT('',#218);
#220=CARTESIAN_POINT('',(-59.854705541097189,10.374943417254912,-2.842171E-014));
#221=DIRECTION('',(0.0,0.0,1.0));
#222=VECTOR('',#221,98.400000000000048);
#223=LINE('',#220,#222);
#224=EDGE_CURVE('',#219,#111,#223,.T.);
#225=ORIENTED_EDGE('',*,*,#224,.F.);
#226=CARTESIAN_POINT('',(-59.978847309143063,10.342281933787721,-1.776357E-014));
#227=DIRECTION('',(0.967088729087712,0.254439364233435,0.0));
#228=VECTOR('',#227,0.128366471774492);
#229=LINE('',#226,#228);
#230=EDGE_CURVE('',#187,#219,#229,.T.);
#231=ORIENTED_EDGE('',*,*,#230,.F.);
#232=ORIENTED_EDGE('',*,*,#192,.F.);
#233=EDGE_LOOP('',(#217,#225,#231,#232));
#234=FACE_OUTER_BOUND('',#233,.T.);
#235=ADVANCED_FACE('',(#234),#216,.T.);
#236=CARTESIAN_POINT('',(-59.918315382155555,10.616715599526840,157.500000000000000));
#237=DIRECTION('',(0.0,0.0,1.0));
#238=DIRECTION('',(0.591174060030851,-0.806544004222113,0.0));
#239=AXIS2_PLACEMENT_3D('',#236,#237,#238);
#240=CYLINDRICAL_SURFACE('',#239,0.250000000000000);
#241=ORIENTED_EDGE('',*,*,#117,.T.);
#242=CARTESIAN_POINT('',(-59.706905857619930,10.483276426359359,0.0));
#243=VERTEX_POINT('',#242);
#244=CARTESIAN_POINT('',(-59.706905857619930,10.483276426359359,98.400000000000020));
#245=DIRECTION('',(0.0,0.0,-1.0));
#246=VECTOR('',#245,98.400000000000020);
#247=LINE('',#244,#246);
#248=EDGE_CURVE('',#103,#243,#247,.T.);
#249=ORIENTED_EDGE('',*,*,#248,.T.);
#250=CARTESIAN_POINT('',(-59.918315382155555,10.616715599526840,0.0));
#251=DIRECTION('',(0.0,0.0,-1.0));
#252=DIRECTION('',(0.591174060030851,-0.806544004222113,0.0));
#253=AXIS2_PLACEMENT_3D('',#250,#251,#252);
#254=CIRCLE('',#253,0.250000000000000);
#255=EDGE_CURVE('',#243,#219,#254,.T.);
#256=ORIENTED_EDGE('',*,*,#255,.T.);
#257=ORIENTED_EDGE('',*,*,#224,.T.);
#258=EDGE_LOOP('',(#241,#249,#256,#257));
#259=FACE_OUTER_BOUND('',#258,.T.);
#260=ADVANCED_FACE('',(#259),#240,.F.);
#261=CARTESIAN_POINT('',(-60.138181797426796,9.800000000000001,0.0));
#262=DIRECTION('',(-0.845638098142496,0.533756692669930,0.0));
#263=DIRECTION('',(0.0,0.0,1.0));
#264=AXIS2_PLACEMENT_3D('',#261,#262,#263);
#265=PLANE('',#264);
#266=ORIENTED_EDGE('',*,*,#108,.T.);
#267=CARTESIAN_POINT('',(-58.853889190788529,11.834722509807774,0.0));
#268=VERTEX_POINT('',#267);
#269=CARTESIAN_POINT('',(-58.853889190788529,11.834722509807774,0.0));
#270=DIRECTION('',(0.0,0.0,1.0));
#271=VECTOR('',#270,98.400000000000020);
#272=LINE('',#269,#271);
#273=EDGE_CURVE('',#268,#94,#272,.T.);
#274=ORIENTED_EDGE('',*,*,#273,.F.);
#275=CARTESIAN_POINT('',(-58.853889190788529,11.834722509807774,0.0));
#276=DIRECTION('',(-0.533756692669930,-0.845638098142496,0.0));
#277=VECTOR('',#276,1.598137650629701);
#278=LINE('',#275,#277);
#279=EDGE_CURVE('',#268,#243,#278,.T.);
#280=ORIENTED_EDGE('',*,*,#279,.T.);
#281=ORIENTED_EDGE('',*,*,#248,.F.);
#282=EDGE_LOOP('',(#266,#274,#280,#281));
#283=FACE_OUTER_BOUND('',#282,.T.);
#284=ADVANCED_FACE('',(#283),#265,.T.);
#285=CARTESIAN_POINT('',(-58.642479666252910,11.701283336640294,0.0));
#286=DIRECTION('',(0.0,0.0,1.0));
#287=DIRECTION('',(0.242671974062754,0.970108402707907,0.0));
#288=AXIS2_PLACEMENT_3D('',#285,#286,#287);
#289=CYLINDRICAL_SURFACE('',#288,0.250000000000000);
#290=ORIENTED_EDGE('',*,*,#100,.T.);
#291=CARTESIAN_POINT('',(-58.393141824305708,11.719466861411700,0.0));
#292=VERTEX_POINT('',#291);
#293=CARTESIAN_POINT('',(-58.393141824305708,11.719466861411703,98.400000000000020));
#294=DIRECTION('',(0.0,0.0,-1.0));
#295=VECTOR('',#294,98.400000000000020);
#296=LINE('',#293,#295);
#297=EDGE_CURVE('',#85,#292,#296,.T.);
#298=ORIENTED_EDGE('',*,*,#297,.T.);
#299=CARTESIAN_POINT('',(-58.642479666252910,11.701283336640294,0.0));
#300=DIRECTION('',(0.0,0.0,1.000000000000000));
#301=DIRECTION('',(0.242671974062754,0.970108402707907,0.0));
#302=AXIS2_PLACEMENT_3D('',#299,#300,#301);
#303=CIRCLE('',#302,0.250000000000000);
#304=EDGE_CURVE('',#292,#268,#303,.T.);
#305=ORIENTED_EDGE('',*,*,#304,.T.);
#306=ORIENTED_EDGE('',*,*,#273,.T.);
#307=EDGE_LOOP('',(#290,#298,#305,#306));
#308=FACE_OUTER_BOUND('',#307,.T.);
#309=ADVANCED_FACE('',(#308),#289,.T.);
#310=CARTESIAN_POINT('',(19.499999999999993,17.399999999999999,0.0));
#311=DIRECTION('',(0.0,0.0,1.0));
#312=DIRECTION('',(0.998015773863434,0.062964395651594,0.0));
#313=AXIS2_PLACEMENT_3D('',#310,#311,#312);
#314=CYLINDRICAL_SURFACE('',#313,78.100000000000009);
#315=ORIENTED_EDGE('',*,*,#91,.T.);
#316=CARTESIAN_POINT('',(-53.260283505121564,-10.982232897612871,0.0));
#317=VERTEX_POINT('',#316);
#318=CARTESIAN_POINT('',(-53.260283505121571,-10.982232897612871,0.0));
#319=DIRECTION('',(0.0,0.0,1.0));
#320=VECTOR('',#319,98.400000000000020);
#321=LINE('',#318,#320);
#322=EDGE_CURVE('',#317,#74,#321,.T.);
#323=ORIENTED_EDGE('',*,*,#322,.F.);
#324=CARTESIAN_POINT('',(19.499999999999993,17.399999999999999,0.0));
#325=DIRECTION('',(0.0,0.0,-1.0));
#326=DIRECTION('',(0.998015773863434,0.062964395651594,0.0));
#327=AXIS2_PLACEMENT_3D('',#324,#325,#326);
#328=CIRCLE('',#327,78.100000000000009);
#329=EDGE_CURVE('',#317,#292,#328,.T.);
#330=ORIENTED_EDGE('',*,*,#329,.T.);
#331=ORIENTED_EDGE('',*,*,#297,.F.);
#332=EDGE_LOOP('',(#315,#323,#330,#331));
#333=FACE_OUTER_BOUND('',#332,.T.);
#334=ADVANCED_FACE('',(#333),#314,.F.);
#335=CARTESIAN_POINT('',(-55.111515372501366,-10.642887497834847,157.500000000000000));
#336=DIRECTION('',(0.0,0.0,-1.0));
#337=DIRECTION('',(0.186689203554052,0.982419025302520,0.0));
#338=AXIS2_PLACEMENT_3D('',#335,#336,#337);
#339=CYLINDRICAL_SURFACE('',#338,0.250000000000000);
#340=ORIENTED_EDGE('',*,*,#169,.T.);
#341=CARTESIAN_POINT('',(-55.158105088299223,-10.397267062239852,1.776357E-014));
#342=VERTEX_POINT('',#341);
#343=CARTESIAN_POINT('',(-55.158105088299223,-10.397267062239852,98.400000000000020));
#344=DIRECTION('',(0.0,0.0,-1.0));
#345=VECTOR('',#344,98.399999999999991);
#346=LINE('',#343,#345);
#347=EDGE_CURVE('',#155,#342,#346,.T.);
#348=ORIENTED_EDGE('',*,*,#347,.T.);
#349=CARTESIAN_POINT('',(-54.978076199333884,-10.431477973299224,0.0));
#350=VERTEX_POINT('',#349);
#351=CARTESIAN_POINT('',(-55.111515372501366,-10.642887497834847,0.0));
#352=DIRECTION('',(0.0,0.0,-1.0));
#353=DIRECTION('',(0.186689203554052,0.982419025302520,0.0));
#354=AXIS2_PLACEMENT_3D('',#351,#352,#353);
#355=CIRCLE('',#354,0.250000000000000);
#356=EDGE_CURVE('',#342,#350,#355,.T.);
#357=ORIENTED_EDGE('',*,*,#356,.T.);
#358=CARTESIAN_POINT('',(-54.978076199333884,-10.431477973299222,0.0));
#359=DIRECTION('',(0.0,0.0,1.0));
#360=VECTOR('',#359,98.400000000000020);
#361=LINE('',#358,#360);
#362=EDGE_CURVE('',#350,#163,#361,.T.);
#363=ORIENTED_EDGE('',*,*,#362,.T.);
#364=EDGE_LOOP('',(#340,#348,#357,#363));
#365=FACE_OUTER_BOUND('',#364,.T.);
#366=ADVANCED_FACE('',(#365),#339,.F.);
#367=CARTESIAN_POINT('',(-55.491918139723985,-10.460585308369581,315.0));
#368=DIRECTION('',(0.186358863191428,-0.982481742379979,0.0));
#369=DIRECTION('',(0.0,0.0,-1.0));
#370=AXIS2_PLACEMENT_3D('',#367,#368,#369);
#371=PLANE('',#370);
#372=ORIENTED_EDGE('',*,*,#160,.T.);
#373=CARTESIAN_POINT('',(-55.284222803151366,-10.421189291991634,1.776357E-014));
#374=VERTEX_POINT('',#373);
#375=CARTESIAN_POINT('',(-55.284222803151366,-10.421189291991634,1.776357E-014));
#376=DIRECTION('',(0.0,0.0,1.0));
#377=VECTOR('',#376,98.400000000000006);
#378=LINE('',#375,#377);
#379=EDGE_CURVE('',#374,#146,#378,.T.);
#380=ORIENTED_EDGE('',*,*,#379,.F.);
#381=CARTESIAN_POINT('',(-55.158105088299223,-10.397267062239854,1.776357E-014));
#382=DIRECTION('',(-0.982481742379979,-0.186358863191425,0.0));
#383=VECTOR('',#382,0.128366471774461);
#384=LINE('',#381,#383);
#385=EDGE_CURVE('',#342,#374,#384,.T.);
#386=ORIENTED_EDGE('',*,*,#385,.F.);
#387=ORIENTED_EDGE('',*,*,#347,.F.);
#388=EDGE_LOOP('',(#372,#380,#386,#387));
#389=FACE_OUTER_BOUND('',#388,.T.);
#390=ADVANCED_FACE('',(#389),#371,.T.);
#391=CARTESIAN_POINT('',(-57.138202980385635,0.072088790231719,0.0));
#392=DIRECTION('',(0.0,0.0,1.0));
#393=DIRECTION('',(1.0,0.0,0.0));
#394=AXIS2_PLACEMENT_3D('',#391,#392,#393);
#395=PLANE('',#394);
#396=ORIENTED_EDGE('',*,*,#304,.F.);
#397=ORIENTED_EDGE('',*,*,#329,.F.);
#398=CARTESIAN_POINT('',(-53.626630115885476,-11.284494640130617,0.0));
#399=VERTEX_POINT('',#398);
#400=CARTESIAN_POINT('',(-53.493190942717987,-11.073085115594987,0.0));
#401=DIRECTION('',(0.0,0.0,1.000000000000000));
#402=DIRECTION('',(0.636415262602460,-0.771346623462268,0.0));
#403=AXIS2_PLACEMENT_3D('',#400,#401,#402);
#404=CIRCLE('',#403,0.250000000000000);
#405=EDGE_CURVE('',#399,#317,#404,.T.);
#406=ORIENTED_EDGE('',*,*,#405,.F.);
#407=CARTESIAN_POINT('',(-54.978076199333877,-10.431477973299224,0.0));
#408=DIRECTION('',(0.845638098142495,-0.533756692669931,0.0));
#409=VECTOR('',#408,1.598137650629683);
#410=LINE('',#407,#409);
#411=EDGE_CURVE('',#350,#399,#410,.T.);
#412=ORIENTED_EDGE('',*,*,#411,.F.);
#413=ORIENTED_EDGE('',*,*,#356,.F.);
#414=ORIENTED_EDGE('',*,*,#385,.T.);
#415=CARTESIAN_POINT('',(-55.565391868538413,-10.262012645915135,0.0));
#416=VERTEX_POINT('',#415);
#417=CARTESIAN_POINT('',(-55.330812518949216,-10.175568856396644,0.0));
#418=DIRECTION('',(0.0,0.0,1.000000000000000));
#419=DIRECTION('',(-0.492655283414951,-0.870224552470990,0.0));
#420=AXIS2_PLACEMENT_3D('',#417,#418,#419);
#421=CIRCLE('',#420,0.250000000000000);
#422=EDGE_CURVE('',#416,#374,#421,.T.);
#423=ORIENTED_EDGE('',*,*,#422,.F.);
#424=CARTESIAN_POINT('',(19.499999999999993,17.399999999999999,0.0));
#425=DIRECTION('',(0.0,0.0,1.0));
#426=DIRECTION('',(-0.995477272467835,-0.095000000000000,0.0));
#427=AXIS2_PLACEMENT_3D('',#424,#425,#426);
#428=CIRCLE('',#427,80.0);
#429=EDGE_CURVE('',#195,#416,#428,.T.);
#430=ORIENTED_EDGE('',*,*,#429,.F.);
#431=ORIENTED_EDGE('',*,*,#201,.F.);
#432=ORIENTED_EDGE('',*,*,#230,.T.);
#433=ORIENTED_EDGE('',*,*,#255,.F.);
#434=ORIENTED_EDGE('',*,*,#279,.F.);
#435=EDGE_LOOP('',(#396,#397,#406,#412,#413,#414,#423,#430,#431,#432,#433,#434));
#436=FACE_OUTER_BOUND('',#435,.T.);
#437=ADVANCED_FACE('',(#436),#395,.F.);
#438=CARTESIAN_POINT('',(-53.493190942717987,-11.073085115594987,0.0));
#439=DIRECTION('',(0.0,0.0,1.0));
#440=DIRECTION('',(0.636415262602460,-0.771346623462268,0.0));
#441=AXIS2_PLACEMENT_3D('',#438,#439,#440);
#442=CYLINDRICAL_SURFACE('',#441,0.250000000000000);
#443=ORIENTED_EDGE('',*,*,#82,.T.);
#444=CARTESIAN_POINT('',(-53.626630115885476,-11.284494640130617,98.400000000000020));
#445=DIRECTION('',(0.0,0.0,-1.0));
#446=VECTOR('',#445,98.400000000000020);
#447=LINE('',#444,#446);
#448=EDGE_CURVE('',#76,#399,#447,.T.);
#449=ORIENTED_EDGE('',*,*,#448,.T.);
#450=ORIENTED_EDGE('',*,*,#405,.T.);
#451=ORIENTED_EDGE('',*,*,#322,.T.);
#452=EDGE_LOOP('',(#443,#449,#450,#451));
#453=FACE_OUTER_BOUND('',#452,.T.);
#454=ADVANCED_FACE('',(#453),#442,.T.);
#455=CARTESIAN_POINT('',(-52.978871926082718,-11.693351892184936,0.0));
#456=DIRECTION('',(-0.533756692669930,-0.845638098142496,0.0));
#457=DIRECTION('',(0.0,0.0,1.0));
#458=AXIS2_PLACEMENT_3D('',#455,#456,#457);
#459=PLANE('',#458);
#460=ORIENTED_EDGE('',*,*,#175,.T.);
#461=ORIENTED_EDGE('',*,*,#362,.F.);
#462=ORIENTED_EDGE('',*,*,#411,.T.);
#463=ORIENTED_EDGE('',*,*,#448,.F.);
#464=EDGE_LOOP('',(#460,#461,#462,#463));
#465=FACE_OUTER_BOUND('',#464,.T.);
#466=ADVANCED_FACE('',(#465),#459,.T.);
#467=CARTESIAN_POINT('',(-55.330812518949216,-10.175568856396644,0.0));
#468=DIRECTION('',(0.0,0.0,-1.0));
#469=DIRECTION('',(-0.492655283414951,-0.870224552470990,0.0));
#470=AXIS2_PLACEMENT_3D('',#467,#468,#469);
#471=CYLINDRICAL_SURFACE('',#470,0.250000000000000);
#472=ORIENTED_EDGE('',*,*,#152,.T.);
#473=CARTESIAN_POINT('',(-55.565391868538406,-10.262012645915133,98.400000000000020));
#474=DIRECTION('',(0.0,0.0,-1.0));
#475=VECTOR('',#474,98.400000000000020);
#476=LINE('',#473,#475);
#477=EDGE_CURVE('',#137,#416,#476,.T.);
#478=ORIENTED_EDGE('',*,*,#477,.T.);
#479=ORIENTED_EDGE('',*,*,#422,.T.);
#480=ORIENTED_EDGE('',*,*,#379,.T.);
#481=EDGE_LOOP('',(#472,#478,#479,#480));
#482=FACE_OUTER_BOUND('',#481,.T.);
#483=ADVANCED_FACE('',(#482),#471,.T.);
#484=CARTESIAN_POINT('',(19.499999999999993,17.399999999999999,0.0));
#485=DIRECTION('',(0.0,0.0,1.0));
#486=DIRECTION('',(-0.995477272467835,-0.095000000000000,0.0));
#487=AXIS2_PLACEMENT_3D('',#484,#485,#486);
#488=CYLINDRICAL_SURFACE('',#487,80.0);
#489=ORIENTED_EDGE('',*,*,#143,.T.);
#490=ORIENTED_EDGE('',*,*,#207,.F.);
#491=ORIENTED_EDGE('',*,*,#429,.T.);
#492=ORIENTED_EDGE('',*,*,#477,.F.);
#493=EDGE_LOOP('',(#489,#490,#491,#492));
#494=FACE_OUTER_BOUND('',#493,.T.);
#495=ADVANCED_FACE('',(#494),#488,.T.);
#496=CLOSED_SHELL('',(#179,#211,#235,#260,#284,#309,#334,#366,#390,#437,#454,#466,#483,#495));
#497=MANIFOLD_SOLID_BREP('Volumenk\S\vrper1',#496);
#498=DRAUGHTING_PRE_DEFINED_COLOUR('green');
#499=FILL_AREA_STYLE_COLOUR('Grn',#498);
#500=FILL_AREA_STYLE('Grn',(#499));
#501=SURFACE_STYLE_FILL_AREA(#500);
#502=SURFACE_SIDE_STYLE('Grn',(#501));
#503=SURFACE_STYLE_USAGE(.BOTH.,#502);
#504=PRESENTATION_STYLE_ASSIGNMENT((#503));
#505=STYLED_ITEM('',(#504),#497);
#506=MECHANICAL_DESIGN_GEOMETRIC_PRESENTATION_REPRESENTATION('',(#505),#36);
#507=ADVANCED_BREP_SHAPE_REPRESENTATION('ABSR',(#497),#36);
#508=SHAPE_REPRESENTATION_RELATIONSHIP('SRR','None',#507,#41);
ENDSEC;
END-ISO-10303-21;
