ISO-10303-21;
HEADER;
/* Generated by software containing ST-Developer
 * from STEP Tools, Inc. (www.steptools.com) 
 */

FILE_DESCRIPTION(
/* description */ (''),
/* implementation_level */ '2;1');

FILE_NAME(
/* name */ 'C:\\Users\\haertel\\Desktop\\PDF-TEMP\\1010644_3D.stp',
/* time_stamp */ '2021-04-19T10:07:10+02:00',
/* author */ ('haertel'),
/* organization */ ('Fa. Bopla'),
/* preprocessor_version */ 'ST-DEVELOPER v17.2',
/* originating_system */ 'Autodesk Inventor 2019',
/* authorisation */ '');

FILE_SCHEMA (('AUTOMOTIVE_DESIGN { 1 0 10303 214 3 1 1 }'));
ENDSEC;

DATA;
#10=MECHANICAL_DESIGN_GEOMETRIC_PRESENTATION_REPRESENTATION('',(#13),#679);
#11=SHAPE_REPRESENTATION_RELATIONSHIP('SRR','None',#686,#12);
#12=ADVANCED_BREP_SHAPE_REPRESENTATION('',(#14),#678);
#13=STYLED_ITEM('',(#695),#14);
#14=MANIFOLD_SOLID_BREP('Volumenk\X\F6rper1',#387);
#15=FACE_BOUND('',#72,.T.);
#16=FACE_BOUND('',#73,.T.);
#17=FACE_BOUND('',#74,.T.);
#18=FACE_BOUND('',#75,.T.);
#19=FACE_BOUND('',#76,.T.);
#20=FACE_BOUND('',#77,.T.);
#21=FACE_BOUND('',#78,.T.);
#22=FACE_BOUND('',#79,.T.);
#23=FACE_BOUND('',#80,.T.);
#24=FACE_BOUND('',#81,.T.);
#25=FACE_BOUND('',#83,.T.);
#26=FACE_BOUND('',#84,.T.);
#27=FACE_BOUND('',#85,.T.);
#28=FACE_BOUND('',#86,.T.);
#29=FACE_BOUND('',#87,.T.);
#30=FACE_BOUND('',#88,.T.);
#31=FACE_BOUND('',#89,.T.);
#32=FACE_BOUND('',#90,.T.);
#33=FACE_BOUND('',#91,.T.);
#34=FACE_BOUND('',#92,.T.);
#35=PLANE('',#447);
#36=PLANE('',#448);
#37=PLANE('',#449);
#38=PLANE('',#450);
#39=PLANE('',#451);
#40=PLANE('',#452);
#41=FACE_OUTER_BOUND('',#57,.T.);
#42=FACE_OUTER_BOUND('',#58,.T.);
#43=FACE_OUTER_BOUND('',#59,.T.);
#44=FACE_OUTER_BOUND('',#60,.T.);
#45=FACE_OUTER_BOUND('',#61,.T.);
#46=FACE_OUTER_BOUND('',#62,.T.);
#47=FACE_OUTER_BOUND('',#63,.T.);
#48=FACE_OUTER_BOUND('',#64,.T.);
#49=FACE_OUTER_BOUND('',#65,.T.);
#50=FACE_OUTER_BOUND('',#66,.T.);
#51=FACE_OUTER_BOUND('',#67,.T.);
#52=FACE_OUTER_BOUND('',#68,.T.);
#53=FACE_OUTER_BOUND('',#69,.T.);
#54=FACE_OUTER_BOUND('',#70,.T.);
#55=FACE_OUTER_BOUND('',#71,.T.);
#56=FACE_OUTER_BOUND('',#82,.T.);
#57=EDGE_LOOP('',(#257,#258,#259,#260,#261));
#58=EDGE_LOOP('',(#262,#263,#264,#265,#266));
#59=EDGE_LOOP('',(#267,#268,#269,#270,#271));
#60=EDGE_LOOP('',(#272,#273,#274,#275,#276));
#61=EDGE_LOOP('',(#277,#278,#279,#280,#281));
#62=EDGE_LOOP('',(#282,#283,#284,#285,#286));
#63=EDGE_LOOP('',(#287,#288,#289,#290,#291));
#64=EDGE_LOOP('',(#292,#293,#294,#295,#296));
#65=EDGE_LOOP('',(#297,#298,#299,#300,#301));
#66=EDGE_LOOP('',(#302,#303,#304,#305,#306));
#67=EDGE_LOOP('',(#307,#308,#309,#310));
#68=EDGE_LOOP('',(#311,#312,#313,#314));
#69=EDGE_LOOP('',(#315,#316,#317,#318));
#70=EDGE_LOOP('',(#319,#320,#321,#322));
#71=EDGE_LOOP('',(#323,#324,#325,#326));
#72=EDGE_LOOP('',(#327,#328));
#73=EDGE_LOOP('',(#329,#330));
#74=EDGE_LOOP('',(#331,#332));
#75=EDGE_LOOP('',(#333,#334));
#76=EDGE_LOOP('',(#335,#336));
#77=EDGE_LOOP('',(#337,#338));
#78=EDGE_LOOP('',(#339,#340));
#79=EDGE_LOOP('',(#341,#342));
#80=EDGE_LOOP('',(#343,#344));
#81=EDGE_LOOP('',(#345,#346));
#82=EDGE_LOOP('',(#347,#348,#349,#350));
#83=EDGE_LOOP('',(#351));
#84=EDGE_LOOP('',(#352));
#85=EDGE_LOOP('',(#353));
#86=EDGE_LOOP('',(#354));
#87=EDGE_LOOP('',(#355));
#88=EDGE_LOOP('',(#356));
#89=EDGE_LOOP('',(#357));
#90=EDGE_LOOP('',(#358));
#91=EDGE_LOOP('',(#359));
#92=EDGE_LOOP('',(#360));
#93=LINE('',#576,#115);
#94=LINE('',#584,#116);
#95=LINE('',#592,#117);
#96=LINE('',#600,#118);
#97=LINE('',#608,#119);
#98=LINE('',#616,#120);
#99=LINE('',#624,#121);
#100=LINE('',#632,#122);
#101=LINE('',#640,#123);
#102=LINE('',#648,#124);
#103=LINE('',#653,#125);
#104=LINE('',#655,#126);
#105=LINE('',#657,#127);
#106=LINE('',#658,#128);
#107=LINE('',#661,#129);
#108=LINE('',#663,#130);
#109=LINE('',#664,#131);
#110=LINE('',#667,#132);
#111=LINE('',#669,#133);
#112=LINE('',#670,#134);
#113=LINE('',#672,#135);
#114=LINE('',#673,#136);
#115=VECTOR('',#461,1.75);
#116=VECTOR('',#470,1.75);
#117=VECTOR('',#479,1.75);
#118=VECTOR('',#488,1.75);
#119=VECTOR('',#497,1.75);
#120=VECTOR('',#506,1.75);
#121=VECTOR('',#515,1.75);
#122=VECTOR('',#524,1.75);
#123=VECTOR('',#533,1.75);
#124=VECTOR('',#542,1.75);
#125=VECTOR('',#547,10.);
#126=VECTOR('',#548,10.);
#127=VECTOR('',#549,10.);
#128=VECTOR('',#550,10.);
#129=VECTOR('',#553,10.);
#130=VECTOR('',#554,10.);
#131=VECTOR('',#555,10.);
#132=VECTOR('',#558,10.);
#133=VECTOR('',#559,10.);
#134=VECTOR('',#560,10.);
#135=VECTOR('',#563,10.);
#136=VECTOR('',#564,10.);
#137=CIRCLE('',#408,1.75);
#138=CIRCLE('',#409,1.75);
#139=CIRCLE('',#410,1.75);
#140=CIRCLE('',#412,1.75);
#141=CIRCLE('',#413,1.75);
#142=CIRCLE('',#414,1.75);
#143=CIRCLE('',#416,1.75);
#144=CIRCLE('',#417,1.75);
#145=CIRCLE('',#418,1.75);
#146=CIRCLE('',#420,1.75);
#147=CIRCLE('',#421,1.75);
#148=CIRCLE('',#422,1.75);
#149=CIRCLE('',#424,1.75);
#150=CIRCLE('',#425,1.75);
#151=CIRCLE('',#426,1.75);
#152=CIRCLE('',#428,1.75);
#153=CIRCLE('',#429,1.75);
#154=CIRCLE('',#430,1.75);
#155=CIRCLE('',#432,1.75);
#156=CIRCLE('',#433,1.75);
#157=CIRCLE('',#434,1.75);
#158=CIRCLE('',#436,1.75);
#159=CIRCLE('',#437,1.75);
#160=CIRCLE('',#438,1.75);
#161=CIRCLE('',#440,1.75);
#162=CIRCLE('',#441,1.75);
#163=CIRCLE('',#442,1.75);
#164=CIRCLE('',#444,1.75);
#165=CIRCLE('',#445,1.75);
#166=CIRCLE('',#446,1.75);
#167=VERTEX_POINT('',#571);
#168=VERTEX_POINT('',#572);
#169=VERTEX_POINT('',#575);
#170=VERTEX_POINT('',#579);
#171=VERTEX_POINT('',#580);
#172=VERTEX_POINT('',#583);
#173=VERTEX_POINT('',#587);
#174=VERTEX_POINT('',#588);
#175=VERTEX_POINT('',#591);
#176=VERTEX_POINT('',#595);
#177=VERTEX_POINT('',#596);
#178=VERTEX_POINT('',#599);
#179=VERTEX_POINT('',#603);
#180=VERTEX_POINT('',#604);
#181=VERTEX_POINT('',#607);
#182=VERTEX_POINT('',#611);
#183=VERTEX_POINT('',#612);
#184=VERTEX_POINT('',#615);
#185=VERTEX_POINT('',#619);
#186=VERTEX_POINT('',#620);
#187=VERTEX_POINT('',#623);
#188=VERTEX_POINT('',#627);
#189=VERTEX_POINT('',#628);
#190=VERTEX_POINT('',#631);
#191=VERTEX_POINT('',#635);
#192=VERTEX_POINT('',#636);
#193=VERTEX_POINT('',#639);
#194=VERTEX_POINT('',#643);
#195=VERTEX_POINT('',#644);
#196=VERTEX_POINT('',#647);
#197=VERTEX_POINT('',#651);
#198=VERTEX_POINT('',#652);
#199=VERTEX_POINT('',#654);
#200=VERTEX_POINT('',#656);
#201=VERTEX_POINT('',#660);
#202=VERTEX_POINT('',#662);
#203=VERTEX_POINT('',#666);
#204=VERTEX_POINT('',#668);
#205=EDGE_CURVE('',#167,#168,#137,.T.);
#206=EDGE_CURVE('',#168,#167,#138,.T.);
#207=EDGE_CURVE('',#168,#169,#93,.T.);
#208=EDGE_CURVE('',#169,#169,#139,.T.);
#209=EDGE_CURVE('',#170,#171,#140,.T.);
#210=EDGE_CURVE('',#171,#170,#141,.T.);
#211=EDGE_CURVE('',#171,#172,#94,.T.);
#212=EDGE_CURVE('',#172,#172,#142,.T.);
#213=EDGE_CURVE('',#173,#174,#143,.T.);
#214=EDGE_CURVE('',#174,#173,#144,.T.);
#215=EDGE_CURVE('',#174,#175,#95,.T.);
#216=EDGE_CURVE('',#175,#175,#145,.T.);
#217=EDGE_CURVE('',#176,#177,#146,.T.);
#218=EDGE_CURVE('',#177,#176,#147,.T.);
#219=EDGE_CURVE('',#177,#178,#96,.T.);
#220=EDGE_CURVE('',#178,#178,#148,.T.);
#221=EDGE_CURVE('',#179,#180,#149,.T.);
#222=EDGE_CURVE('',#180,#179,#150,.T.);
#223=EDGE_CURVE('',#180,#181,#97,.T.);
#224=EDGE_CURVE('',#181,#181,#151,.T.);
#225=EDGE_CURVE('',#182,#183,#152,.T.);
#226=EDGE_CURVE('',#183,#182,#153,.T.);
#227=EDGE_CURVE('',#183,#184,#98,.T.);
#228=EDGE_CURVE('',#184,#184,#154,.T.);
#229=EDGE_CURVE('',#185,#186,#155,.T.);
#230=EDGE_CURVE('',#186,#185,#156,.T.);
#231=EDGE_CURVE('',#186,#187,#99,.T.);
#232=EDGE_CURVE('',#187,#187,#157,.T.);
#233=EDGE_CURVE('',#188,#189,#158,.T.);
#234=EDGE_CURVE('',#189,#188,#159,.T.);
#235=EDGE_CURVE('',#189,#190,#100,.T.);
#236=EDGE_CURVE('',#190,#190,#160,.T.);
#237=EDGE_CURVE('',#191,#192,#161,.T.);
#238=EDGE_CURVE('',#192,#191,#162,.T.);
#239=EDGE_CURVE('',#192,#193,#101,.T.);
#240=EDGE_CURVE('',#193,#193,#163,.T.);
#241=EDGE_CURVE('',#194,#195,#164,.T.);
#242=EDGE_CURVE('',#195,#194,#165,.T.);
#243=EDGE_CURVE('',#195,#196,#102,.T.);
#244=EDGE_CURVE('',#196,#196,#166,.T.);
#245=EDGE_CURVE('',#197,#198,#103,.T.);
#246=EDGE_CURVE('',#199,#198,#104,.T.);
#247=EDGE_CURVE('',#200,#199,#105,.T.);
#248=EDGE_CURVE('',#200,#197,#106,.T.);
#249=EDGE_CURVE('',#198,#201,#107,.T.);
#250=EDGE_CURVE('',#202,#201,#108,.T.);
#251=EDGE_CURVE('',#199,#202,#109,.T.);
#252=EDGE_CURVE('',#201,#203,#110,.T.);
#253=EDGE_CURVE('',#204,#203,#111,.T.);
#254=EDGE_CURVE('',#202,#204,#112,.T.);
#255=EDGE_CURVE('',#203,#197,#113,.T.);
#256=EDGE_CURVE('',#204,#200,#114,.T.);
#257=ORIENTED_EDGE('',*,*,#205,.F.);
#258=ORIENTED_EDGE('',*,*,#206,.F.);
#259=ORIENTED_EDGE('',*,*,#207,.T.);
#260=ORIENTED_EDGE('',*,*,#208,.F.);
#261=ORIENTED_EDGE('',*,*,#207,.F.);
#262=ORIENTED_EDGE('',*,*,#209,.F.);
#263=ORIENTED_EDGE('',*,*,#210,.F.);
#264=ORIENTED_EDGE('',*,*,#211,.T.);
#265=ORIENTED_EDGE('',*,*,#212,.F.);
#266=ORIENTED_EDGE('',*,*,#211,.F.);
#267=ORIENTED_EDGE('',*,*,#213,.F.);
#268=ORIENTED_EDGE('',*,*,#214,.F.);
#269=ORIENTED_EDGE('',*,*,#215,.T.);
#270=ORIENTED_EDGE('',*,*,#216,.F.);
#271=ORIENTED_EDGE('',*,*,#215,.F.);
#272=ORIENTED_EDGE('',*,*,#217,.F.);
#273=ORIENTED_EDGE('',*,*,#218,.F.);
#274=ORIENTED_EDGE('',*,*,#219,.T.);
#275=ORIENTED_EDGE('',*,*,#220,.F.);
#276=ORIENTED_EDGE('',*,*,#219,.F.);
#277=ORIENTED_EDGE('',*,*,#221,.F.);
#278=ORIENTED_EDGE('',*,*,#222,.F.);
#279=ORIENTED_EDGE('',*,*,#223,.T.);
#280=ORIENTED_EDGE('',*,*,#224,.F.);
#281=ORIENTED_EDGE('',*,*,#223,.F.);
#282=ORIENTED_EDGE('',*,*,#225,.F.);
#283=ORIENTED_EDGE('',*,*,#226,.F.);
#284=ORIENTED_EDGE('',*,*,#227,.T.);
#285=ORIENTED_EDGE('',*,*,#228,.F.);
#286=ORIENTED_EDGE('',*,*,#227,.F.);
#287=ORIENTED_EDGE('',*,*,#229,.F.);
#288=ORIENTED_EDGE('',*,*,#230,.F.);
#289=ORIENTED_EDGE('',*,*,#231,.T.);
#290=ORIENTED_EDGE('',*,*,#232,.F.);
#291=ORIENTED_EDGE('',*,*,#231,.F.);
#292=ORIENTED_EDGE('',*,*,#233,.F.);
#293=ORIENTED_EDGE('',*,*,#234,.F.);
#294=ORIENTED_EDGE('',*,*,#235,.T.);
#295=ORIENTED_EDGE('',*,*,#236,.F.);
#296=ORIENTED_EDGE('',*,*,#235,.F.);
#297=ORIENTED_EDGE('',*,*,#237,.F.);
#298=ORIENTED_EDGE('',*,*,#238,.F.);
#299=ORIENTED_EDGE('',*,*,#239,.T.);
#300=ORIENTED_EDGE('',*,*,#240,.F.);
#301=ORIENTED_EDGE('',*,*,#239,.F.);
#302=ORIENTED_EDGE('',*,*,#241,.F.);
#303=ORIENTED_EDGE('',*,*,#242,.F.);
#304=ORIENTED_EDGE('',*,*,#243,.T.);
#305=ORIENTED_EDGE('',*,*,#244,.F.);
#306=ORIENTED_EDGE('',*,*,#243,.F.);
#307=ORIENTED_EDGE('',*,*,#245,.T.);
#308=ORIENTED_EDGE('',*,*,#246,.F.);
#309=ORIENTED_EDGE('',*,*,#247,.F.);
#310=ORIENTED_EDGE('',*,*,#248,.T.);
#311=ORIENTED_EDGE('',*,*,#249,.T.);
#312=ORIENTED_EDGE('',*,*,#250,.F.);
#313=ORIENTED_EDGE('',*,*,#251,.F.);
#314=ORIENTED_EDGE('',*,*,#246,.T.);
#315=ORIENTED_EDGE('',*,*,#252,.T.);
#316=ORIENTED_EDGE('',*,*,#253,.F.);
#317=ORIENTED_EDGE('',*,*,#254,.F.);
#318=ORIENTED_EDGE('',*,*,#250,.T.);
#319=ORIENTED_EDGE('',*,*,#255,.T.);
#320=ORIENTED_EDGE('',*,*,#248,.F.);
#321=ORIENTED_EDGE('',*,*,#256,.F.);
#322=ORIENTED_EDGE('',*,*,#253,.T.);
#323=ORIENTED_EDGE('',*,*,#245,.F.);
#324=ORIENTED_EDGE('',*,*,#255,.F.);
#325=ORIENTED_EDGE('',*,*,#252,.F.);
#326=ORIENTED_EDGE('',*,*,#249,.F.);
#327=ORIENTED_EDGE('',*,*,#205,.T.);
#328=ORIENTED_EDGE('',*,*,#206,.T.);
#329=ORIENTED_EDGE('',*,*,#209,.T.);
#330=ORIENTED_EDGE('',*,*,#210,.T.);
#331=ORIENTED_EDGE('',*,*,#213,.T.);
#332=ORIENTED_EDGE('',*,*,#214,.T.);
#333=ORIENTED_EDGE('',*,*,#217,.T.);
#334=ORIENTED_EDGE('',*,*,#218,.T.);
#335=ORIENTED_EDGE('',*,*,#221,.T.);
#336=ORIENTED_EDGE('',*,*,#222,.T.);
#337=ORIENTED_EDGE('',*,*,#225,.T.);
#338=ORIENTED_EDGE('',*,*,#226,.T.);
#339=ORIENTED_EDGE('',*,*,#229,.T.);
#340=ORIENTED_EDGE('',*,*,#230,.T.);
#341=ORIENTED_EDGE('',*,*,#233,.T.);
#342=ORIENTED_EDGE('',*,*,#234,.T.);
#343=ORIENTED_EDGE('',*,*,#237,.T.);
#344=ORIENTED_EDGE('',*,*,#238,.T.);
#345=ORIENTED_EDGE('',*,*,#241,.T.);
#346=ORIENTED_EDGE('',*,*,#242,.T.);
#347=ORIENTED_EDGE('',*,*,#256,.T.);
#348=ORIENTED_EDGE('',*,*,#247,.T.);
#349=ORIENTED_EDGE('',*,*,#251,.T.);
#350=ORIENTED_EDGE('',*,*,#254,.T.);
#351=ORIENTED_EDGE('',*,*,#208,.T.);
#352=ORIENTED_EDGE('',*,*,#212,.T.);
#353=ORIENTED_EDGE('',*,*,#216,.T.);
#354=ORIENTED_EDGE('',*,*,#220,.T.);
#355=ORIENTED_EDGE('',*,*,#224,.T.);
#356=ORIENTED_EDGE('',*,*,#228,.T.);
#357=ORIENTED_EDGE('',*,*,#232,.T.);
#358=ORIENTED_EDGE('',*,*,#236,.T.);
#359=ORIENTED_EDGE('',*,*,#240,.T.);
#360=ORIENTED_EDGE('',*,*,#244,.T.);
#361=CYLINDRICAL_SURFACE('',#407,1.75);
#362=CYLINDRICAL_SURFACE('',#411,1.75);
#363=CYLINDRICAL_SURFACE('',#415,1.75);
#364=CYLINDRICAL_SURFACE('',#419,1.75);
#365=CYLINDRICAL_SURFACE('',#423,1.75);
#366=CYLINDRICAL_SURFACE('',#427,1.75);
#367=CYLINDRICAL_SURFACE('',#431,1.75);
#368=CYLINDRICAL_SURFACE('',#435,1.75);
#369=CYLINDRICAL_SURFACE('',#439,1.75);
#370=CYLINDRICAL_SURFACE('',#443,1.75);
#371=ADVANCED_FACE('',(#41),#361,.F.);
#372=ADVANCED_FACE('',(#42),#362,.F.);
#373=ADVANCED_FACE('',(#43),#363,.F.);
#374=ADVANCED_FACE('',(#44),#364,.F.);
#375=ADVANCED_FACE('',(#45),#365,.F.);
#376=ADVANCED_FACE('',(#46),#366,.F.);
#377=ADVANCED_FACE('',(#47),#367,.F.);
#378=ADVANCED_FACE('',(#48),#368,.F.);
#379=ADVANCED_FACE('',(#49),#369,.F.);
#380=ADVANCED_FACE('',(#50),#370,.F.);
#381=ADVANCED_FACE('',(#51),#35,.T.);
#382=ADVANCED_FACE('',(#52),#36,.T.);
#383=ADVANCED_FACE('',(#53),#37,.T.);
#384=ADVANCED_FACE('',(#54),#38,.T.);
#385=ADVANCED_FACE('',(#55,#15,#16,#17,#18,#19,#20,#21,#22,#23,#24),#39,
 .T.);
#386=ADVANCED_FACE('',(#56,#25,#26,#27,#28,#29,#30,#31,#32,#33,#34),#40,
 .F.);
#387=CLOSED_SHELL('',(#371,#372,#373,#374,#375,#376,#377,#378,#379,#380,
#381,#382,#383,#384,#385,#386));
#388=DERIVED_UNIT_ELEMENT(#390,1.);
#389=DERIVED_UNIT_ELEMENT(#681,3.);
#390=(
MASS_UNIT()
NAMED_UNIT(*)
SI_UNIT($,.GRAM.)
);
#391=DERIVED_UNIT((#388,#389));
#392=MEASURE_REPRESENTATION_ITEM('density measure',
POSITIVE_RATIO_MEASURE(1.),#391);
#393=PROPERTY_DEFINITION_REPRESENTATION(#398,#395);
#394=PROPERTY_DEFINITION_REPRESENTATION(#399,#396);
#395=REPRESENTATION('material name',(#397),#678);
#396=REPRESENTATION('density',(#392),#678);
#397=DESCRIPTIVE_REPRESENTATION_ITEM('Allgemein','Allgemein');
#398=PROPERTY_DEFINITION('material property','material name',#688);
#399=PROPERTY_DEFINITION('material property','density of part',#688);
#400=DATE_TIME_ROLE('creation_date');
#401=APPLIED_DATE_AND_TIME_ASSIGNMENT(#402,#400,(#688));
#402=DATE_AND_TIME(#403,#404);
#403=CALENDAR_DATE(2012,27,6);
#404=LOCAL_TIME(11,42,1.,#405);
#405=COORDINATED_UNIVERSAL_TIME_OFFSET(0,0,.BEHIND.);
#406=AXIS2_PLACEMENT_3D('placement',#569,#453,#454);
#407=AXIS2_PLACEMENT_3D('',#570,#455,#456);
#408=AXIS2_PLACEMENT_3D('',#573,#457,#458);
#409=AXIS2_PLACEMENT_3D('',#574,#459,#460);
#410=AXIS2_PLACEMENT_3D('',#577,#462,#463);
#411=AXIS2_PLACEMENT_3D('',#578,#464,#465);
#412=AXIS2_PLACEMENT_3D('',#581,#466,#467);
#413=AXIS2_PLACEMENT_3D('',#582,#468,#469);
#414=AXIS2_PLACEMENT_3D('',#585,#471,#472);
#415=AXIS2_PLACEMENT_3D('',#586,#473,#474);
#416=AXIS2_PLACEMENT_3D('',#589,#475,#476);
#417=AXIS2_PLACEMENT_3D('',#590,#477,#478);
#418=AXIS2_PLACEMENT_3D('',#593,#480,#481);
#419=AXIS2_PLACEMENT_3D('',#594,#482,#483);
#420=AXIS2_PLACEMENT_3D('',#597,#484,#485);
#421=AXIS2_PLACEMENT_3D('',#598,#486,#487);
#422=AXIS2_PLACEMENT_3D('',#601,#489,#490);
#423=AXIS2_PLACEMENT_3D('',#602,#491,#492);
#424=AXIS2_PLACEMENT_3D('',#605,#493,#494);
#425=AXIS2_PLACEMENT_3D('',#606,#495,#496);
#426=AXIS2_PLACEMENT_3D('',#609,#498,#499);
#427=AXIS2_PLACEMENT_3D('',#610,#500,#501);
#428=AXIS2_PLACEMENT_3D('',#613,#502,#503);
#429=AXIS2_PLACEMENT_3D('',#614,#504,#505);
#430=AXIS2_PLACEMENT_3D('',#617,#507,#508);
#431=AXIS2_PLACEMENT_3D('',#618,#509,#510);
#432=AXIS2_PLACEMENT_3D('',#621,#511,#512);
#433=AXIS2_PLACEMENT_3D('',#622,#513,#514);
#434=AXIS2_PLACEMENT_3D('',#625,#516,#517);
#435=AXIS2_PLACEMENT_3D('',#626,#518,#519);
#436=AXIS2_PLACEMENT_3D('',#629,#520,#521);
#437=AXIS2_PLACEMENT_3D('',#630,#522,#523);
#438=AXIS2_PLACEMENT_3D('',#633,#525,#526);
#439=AXIS2_PLACEMENT_3D('',#634,#527,#528);
#440=AXIS2_PLACEMENT_3D('',#637,#529,#530);
#441=AXIS2_PLACEMENT_3D('',#638,#531,#532);
#442=AXIS2_PLACEMENT_3D('',#641,#534,#535);
#443=AXIS2_PLACEMENT_3D('',#642,#536,#537);
#444=AXIS2_PLACEMENT_3D('',#645,#538,#539);
#445=AXIS2_PLACEMENT_3D('',#646,#540,#541);
#446=AXIS2_PLACEMENT_3D('',#649,#543,#544);
#447=AXIS2_PLACEMENT_3D('',#650,#545,#546);
#448=AXIS2_PLACEMENT_3D('',#659,#551,#552);
#449=AXIS2_PLACEMENT_3D('',#665,#556,#557);
#450=AXIS2_PLACEMENT_3D('',#671,#561,#562);
#451=AXIS2_PLACEMENT_3D('',#674,#565,#566);
#452=AXIS2_PLACEMENT_3D('',#675,#567,#568);
#453=DIRECTION('axis',(0.,0.,1.));
#454=DIRECTION('refdir',(1.,0.,0.));
#455=DIRECTION('center_axis',(0.,0.,1.));
#456=DIRECTION('ref_axis',(1.,0.,0.));
#457=DIRECTION('center_axis',(0.,0.,-1.));
#458=DIRECTION('ref_axis',(1.,0.,0.));
#459=DIRECTION('center_axis',(0.,0.,-1.));
#460=DIRECTION('ref_axis',(1.,0.,0.));
#461=DIRECTION('',(0.,0.,-1.));
#462=DIRECTION('center_axis',(0.,0.,1.));
#463=DIRECTION('ref_axis',(1.,0.,0.));
#464=DIRECTION('center_axis',(0.,0.,1.));
#465=DIRECTION('ref_axis',(1.,0.,0.));
#466=DIRECTION('center_axis',(0.,0.,-1.));
#467=DIRECTION('ref_axis',(1.,0.,0.));
#468=DIRECTION('center_axis',(0.,0.,-1.));
#469=DIRECTION('ref_axis',(1.,0.,0.));
#470=DIRECTION('',(0.,0.,-1.));
#471=DIRECTION('center_axis',(0.,0.,1.));
#472=DIRECTION('ref_axis',(1.,0.,0.));
#473=DIRECTION('center_axis',(0.,0.,1.));
#474=DIRECTION('ref_axis',(1.,0.,0.));
#475=DIRECTION('center_axis',(0.,0.,-1.));
#476=DIRECTION('ref_axis',(1.,0.,0.));
#477=DIRECTION('center_axis',(0.,0.,-1.));
#478=DIRECTION('ref_axis',(1.,0.,0.));
#479=DIRECTION('',(0.,0.,-1.));
#480=DIRECTION('center_axis',(0.,0.,1.));
#481=DIRECTION('ref_axis',(1.,0.,0.));
#482=DIRECTION('center_axis',(0.,0.,1.));
#483=DIRECTION('ref_axis',(1.,0.,0.));
#484=DIRECTION('center_axis',(0.,0.,-1.));
#485=DIRECTION('ref_axis',(1.,0.,0.));
#486=DIRECTION('center_axis',(0.,0.,-1.));
#487=DIRECTION('ref_axis',(1.,0.,0.));
#488=DIRECTION('',(0.,0.,-1.));
#489=DIRECTION('center_axis',(0.,0.,1.));
#490=DIRECTION('ref_axis',(1.,0.,0.));
#491=DIRECTION('center_axis',(0.,0.,1.));
#492=DIRECTION('ref_axis',(1.,0.,0.));
#493=DIRECTION('center_axis',(0.,0.,-1.));
#494=DIRECTION('ref_axis',(1.,0.,0.));
#495=DIRECTION('center_axis',(0.,0.,-1.));
#496=DIRECTION('ref_axis',(1.,0.,0.));
#497=DIRECTION('',(0.,0.,-1.));
#498=DIRECTION('center_axis',(0.,0.,1.));
#499=DIRECTION('ref_axis',(1.,0.,0.));
#500=DIRECTION('center_axis',(0.,0.,1.));
#501=DIRECTION('ref_axis',(1.,0.,0.));
#502=DIRECTION('center_axis',(0.,0.,-1.));
#503=DIRECTION('ref_axis',(1.,0.,0.));
#504=DIRECTION('center_axis',(0.,0.,-1.));
#505=DIRECTION('ref_axis',(1.,0.,0.));
#506=DIRECTION('',(0.,0.,-1.));
#507=DIRECTION('center_axis',(0.,0.,1.));
#508=DIRECTION('ref_axis',(1.,0.,0.));
#509=DIRECTION('center_axis',(0.,0.,1.));
#510=DIRECTION('ref_axis',(1.,0.,0.));
#511=DIRECTION('center_axis',(0.,0.,-1.));
#512=DIRECTION('ref_axis',(1.,0.,0.));
#513=DIRECTION('center_axis',(0.,0.,-1.));
#514=DIRECTION('ref_axis',(1.,0.,0.));
#515=DIRECTION('',(0.,0.,-1.));
#516=DIRECTION('center_axis',(0.,0.,1.));
#517=DIRECTION('ref_axis',(1.,0.,0.));
#518=DIRECTION('center_axis',(0.,0.,1.));
#519=DIRECTION('ref_axis',(1.,0.,0.));
#520=DIRECTION('center_axis',(0.,0.,-1.));
#521=DIRECTION('ref_axis',(1.,0.,0.));
#522=DIRECTION('center_axis',(0.,0.,-1.));
#523=DIRECTION('ref_axis',(1.,0.,0.));
#524=DIRECTION('',(0.,0.,-1.));
#525=DIRECTION('center_axis',(0.,0.,1.));
#526=DIRECTION('ref_axis',(1.,0.,0.));
#527=DIRECTION('center_axis',(0.,0.,1.));
#528=DIRECTION('ref_axis',(1.,0.,0.));
#529=DIRECTION('center_axis',(0.,0.,-1.));
#530=DIRECTION('ref_axis',(1.,0.,0.));
#531=DIRECTION('center_axis',(0.,0.,-1.));
#532=DIRECTION('ref_axis',(1.,0.,0.));
#533=DIRECTION('',(0.,0.,-1.));
#534=DIRECTION('center_axis',(0.,0.,1.));
#535=DIRECTION('ref_axis',(1.,0.,0.));
#536=DIRECTION('center_axis',(0.,0.,1.));
#537=DIRECTION('ref_axis',(1.,0.,0.));
#538=DIRECTION('center_axis',(0.,0.,-1.));
#539=DIRECTION('ref_axis',(1.,0.,0.));
#540=DIRECTION('center_axis',(0.,0.,-1.));
#541=DIRECTION('ref_axis',(1.,0.,0.));
#542=DIRECTION('',(0.,0.,-1.));
#543=DIRECTION('center_axis',(0.,0.,1.));
#544=DIRECTION('ref_axis',(1.,0.,0.));
#545=DIRECTION('center_axis',(1.,-7.70653726420933E-17,0.));
#546=DIRECTION('ref_axis',(0.,0.,-1.));
#547=DIRECTION('',(-7.70653726420933E-17,-1.,0.));
#548=DIRECTION('',(0.,0.,1.));
#549=DIRECTION('',(-7.70653726420933E-17,-1.,0.));
#550=DIRECTION('',(0.,0.,1.));
#551=DIRECTION('center_axis',(0.,-1.,0.));
#552=DIRECTION('ref_axis',(0.,0.,-1.));
#553=DIRECTION('',(-1.,0.,0.));
#554=DIRECTION('',(0.,0.,1.));
#555=DIRECTION('',(-1.,0.,0.));
#556=DIRECTION('center_axis',(-1.,-7.70653726420933E-17,0.));
#557=DIRECTION('ref_axis',(0.,0.,1.));
#558=DIRECTION('',(-7.70653726420933E-17,1.,0.));
#559=DIRECTION('',(0.,0.,1.));
#560=DIRECTION('',(-7.70653726420933E-17,1.,0.));
#561=DIRECTION('center_axis',(0.,1.,0.));
#562=DIRECTION('ref_axis',(0.,0.,1.));
#563=DIRECTION('',(1.,0.,0.));
#564=DIRECTION('',(1.,0.,0.));
#565=DIRECTION('center_axis',(0.,0.,1.));
#566=DIRECTION('ref_axis',(1.,0.,0.));
#567=DIRECTION('center_axis',(0.,0.,1.));
#568=DIRECTION('ref_axis',(1.,0.,0.));
#569=CARTESIAN_POINT('',(0.,0.,0.));
#570=CARTESIAN_POINT('Origin',(50.,0.,-256.050867078567));
#571=CARTESIAN_POINT('',(51.75,0.,2.));
#572=CARTESIAN_POINT('',(48.25,-2.14313189850787E-16,1.99999999999999));
#573=CARTESIAN_POINT('Origin',(50.,0.,1.99999999999999));
#574=CARTESIAN_POINT('Origin',(50.,0.,1.99999999999999));
#575=CARTESIAN_POINT('',(48.25,-2.14313189850787E-16,0.));
#576=CARTESIAN_POINT('',(48.25,-2.14313189850787E-16,-256.050867078567));
#577=CARTESIAN_POINT('Origin',(50.,0.,0.));
#578=CARTESIAN_POINT('Origin',(-50.,0.,-256.050867078567));
#579=CARTESIAN_POINT('',(-48.25,0.,2.));
#580=CARTESIAN_POINT('',(-51.75,-2.14313189850787E-16,1.99999999999999));
#581=CARTESIAN_POINT('Origin',(-50.,0.,1.99999999999999));
#582=CARTESIAN_POINT('Origin',(-50.,0.,1.99999999999999));
#583=CARTESIAN_POINT('',(-51.75,-2.14313189850787E-16,0.));
#584=CARTESIAN_POINT('',(-51.75,-2.14313189850787E-16,-256.050867078567));
#585=CARTESIAN_POINT('Origin',(-50.,0.,0.));
#586=CARTESIAN_POINT('Origin',(-52.5,-110.,-256.050867078567));
#587=CARTESIAN_POINT('',(-50.75,-110.,2.));
#588=CARTESIAN_POINT('',(-54.25,-110.,1.99999999999999));
#589=CARTESIAN_POINT('Origin',(-52.5,-110.,1.99999999999999));
#590=CARTESIAN_POINT('Origin',(-52.5,-110.,1.99999999999999));
#591=CARTESIAN_POINT('',(-54.25,-110.,0.));
#592=CARTESIAN_POINT('',(-54.25,-110.,-256.050867078567));
#593=CARTESIAN_POINT('Origin',(-52.5,-110.,0.));
#594=CARTESIAN_POINT('Origin',(-37.5,-110.,-256.050867078567));
#595=CARTESIAN_POINT('',(-35.75,-110.,2.));
#596=CARTESIAN_POINT('',(-39.25,-110.,1.99999999999999));
#597=CARTESIAN_POINT('Origin',(-37.5,-110.,1.99999999999999));
#598=CARTESIAN_POINT('Origin',(-37.5,-110.,1.99999999999999));
#599=CARTESIAN_POINT('',(-39.25,-110.,0.));
#600=CARTESIAN_POINT('',(-39.25,-110.,-256.050867078567));
#601=CARTESIAN_POINT('Origin',(-37.5,-110.,0.));
#602=CARTESIAN_POINT('Origin',(37.5,-110.,-256.050867078567));
#603=CARTESIAN_POINT('',(39.25,-110.,2.));
#604=CARTESIAN_POINT('',(35.75,-110.,1.99999999999999));
#605=CARTESIAN_POINT('Origin',(37.5,-110.,1.99999999999999));
#606=CARTESIAN_POINT('Origin',(37.5,-110.,1.99999999999999));
#607=CARTESIAN_POINT('',(35.75,-110.,0.));
#608=CARTESIAN_POINT('',(35.75,-110.,-256.050867078567));
#609=CARTESIAN_POINT('Origin',(37.5,-110.,0.));
#610=CARTESIAN_POINT('Origin',(52.5,-110.,-256.050867078567));
#611=CARTESIAN_POINT('',(54.25,-110.,2.));
#612=CARTESIAN_POINT('',(50.75,-110.,1.99999999999999));
#613=CARTESIAN_POINT('Origin',(52.5,-110.,1.99999999999999));
#614=CARTESIAN_POINT('Origin',(52.5,-110.,1.99999999999999));
#615=CARTESIAN_POINT('',(50.75,-110.,0.));
#616=CARTESIAN_POINT('',(50.75,-110.,-256.050867078567));
#617=CARTESIAN_POINT('Origin',(52.5,-110.,0.));
#618=CARTESIAN_POINT('Origin',(52.5,110.,-256.050867078567));
#619=CARTESIAN_POINT('',(54.25,110.,2.));
#620=CARTESIAN_POINT('',(50.75,110.,1.99999999999999));
#621=CARTESIAN_POINT('Origin',(52.5,110.,1.99999999999999));
#622=CARTESIAN_POINT('Origin',(52.5,110.,1.99999999999999));
#623=CARTESIAN_POINT('',(50.75,110.,0.));
#624=CARTESIAN_POINT('',(50.75,110.,-256.050867078567));
#625=CARTESIAN_POINT('Origin',(52.5,110.,0.));
#626=CARTESIAN_POINT('Origin',(37.5,110.,-256.050867078567));
#627=CARTESIAN_POINT('',(39.25,110.,2.));
#628=CARTESIAN_POINT('',(35.75,110.,1.99999999999999));
#629=CARTESIAN_POINT('Origin',(37.5,110.,1.99999999999999));
#630=CARTESIAN_POINT('Origin',(37.5,110.,1.99999999999999));
#631=CARTESIAN_POINT('',(35.75,110.,0.));
#632=CARTESIAN_POINT('',(35.75,110.,-256.050867078567));
#633=CARTESIAN_POINT('Origin',(37.5,110.,0.));
#634=CARTESIAN_POINT('Origin',(-37.5,110.,-256.050867078567));
#635=CARTESIAN_POINT('',(-35.75,110.,2.));
#636=CARTESIAN_POINT('',(-39.25,110.,1.99999999999999));
#637=CARTESIAN_POINT('Origin',(-37.5,110.,1.99999999999999));
#638=CARTESIAN_POINT('Origin',(-37.5,110.,1.99999999999999));
#639=CARTESIAN_POINT('',(-39.25,110.,0.));
#640=CARTESIAN_POINT('',(-39.25,110.,-256.050867078567));
#641=CARTESIAN_POINT('Origin',(-37.5,110.,0.));
#642=CARTESIAN_POINT('Origin',(-52.5,110.,-256.050867078567));
#643=CARTESIAN_POINT('',(-50.75,110.,2.));
#644=CARTESIAN_POINT('',(-54.25,110.,1.99999999999999));
#645=CARTESIAN_POINT('Origin',(-52.5,110.,1.99999999999999));
#646=CARTESIAN_POINT('Origin',(-52.5,110.,1.99999999999999));
#647=CARTESIAN_POINT('',(-54.25,110.,0.));
#648=CARTESIAN_POINT('',(-54.25,110.,-256.050867078567));
#649=CARTESIAN_POINT('Origin',(-52.5,110.,0.));
#650=CARTESIAN_POINT('Origin',(58.,115.25,0.));
#651=CARTESIAN_POINT('',(58.,115.25,2.));
#652=CARTESIAN_POINT('',(58.,-115.25,2.));
#653=CARTESIAN_POINT('',(58.,115.25,2.));
#654=CARTESIAN_POINT('',(58.,-115.25,0.));
#655=CARTESIAN_POINT('',(58.,-115.25,0.));
#656=CARTESIAN_POINT('',(58.,115.25,0.));
#657=CARTESIAN_POINT('',(58.,115.25,0.));
#658=CARTESIAN_POINT('',(58.,115.25,0.));
#659=CARTESIAN_POINT('Origin',(58.,-115.25,0.));
#660=CARTESIAN_POINT('',(-58.,-115.25,2.));
#661=CARTESIAN_POINT('',(58.,-115.25,2.));
#662=CARTESIAN_POINT('',(-58.,-115.25,0.));
#663=CARTESIAN_POINT('',(-58.,-115.25,0.));
#664=CARTESIAN_POINT('',(58.,-115.25,0.));
#665=CARTESIAN_POINT('Origin',(-58.,-115.25,0.));
#666=CARTESIAN_POINT('',(-58.,115.25,2.));
#667=CARTESIAN_POINT('',(-58.,-115.25,2.));
#668=CARTESIAN_POINT('',(-58.,115.25,0.));
#669=CARTESIAN_POINT('',(-58.,115.25,0.));
#670=CARTESIAN_POINT('',(-58.,-115.25,0.));
#671=CARTESIAN_POINT('Origin',(-58.,115.25,0.));
#672=CARTESIAN_POINT('',(-58.,115.25,2.));
#673=CARTESIAN_POINT('',(-58.,115.25,0.));
#674=CARTESIAN_POINT('Origin',(2.22044604925031E-15,5.5870885046137E-15,
2.));
#675=CARTESIAN_POINT('Origin',(2.22044604925031E-15,7.73558779088818E-15,
0.));
#676=UNCERTAINTY_MEASURE_WITH_UNIT(LENGTH_MEASURE(0.01),#680,
'DISTANCE_ACCURACY_VALUE',
'Maximum model space distance between geometric entities at asserted c
onnectivities');
#677=UNCERTAINTY_MEASURE_WITH_UNIT(LENGTH_MEASURE(0.01),#680,
'DISTANCE_ACCURACY_VALUE',
'Maximum model space distance between geometric entities at asserted c
onnectivities');
#678=(
GEOMETRIC_REPRESENTATION_CONTEXT(3)
GLOBAL_UNCERTAINTY_ASSIGNED_CONTEXT((#676))
GLOBAL_UNIT_ASSIGNED_CONTEXT((#680,#682,#683))
REPRESENTATION_CONTEXT('','3D')
);
#679=(
GEOMETRIC_REPRESENTATION_CONTEXT(3)
GLOBAL_UNCERTAINTY_ASSIGNED_CONTEXT((#677))
GLOBAL_UNIT_ASSIGNED_CONTEXT((#680,#682,#683))
REPRESENTATION_CONTEXT('','3D')
);
#680=(
LENGTH_UNIT()
NAMED_UNIT(*)
SI_UNIT(.MILLI.,.METRE.)
);
#681=(
LENGTH_UNIT()
NAMED_UNIT(*)
SI_UNIT(.CENTI.,.METRE.)
);
#682=(
NAMED_UNIT(*)
PLANE_ANGLE_UNIT()
SI_UNIT($,.RADIAN.)
);
#683=(
NAMED_UNIT(*)
SI_UNIT($,.STERADIAN.)
SOLID_ANGLE_UNIT()
);
#684=SHAPE_DEFINITION_REPRESENTATION(#685,#686);
#685=PRODUCT_DEFINITION_SHAPE('',$,#688);
#686=SHAPE_REPRESENTATION('',(#406),#678);
#687=PRODUCT_DEFINITION_CONTEXT('part definition',#692,'design');
#688=PRODUCT_DEFINITION('1010644_3D','1010644_3D',#689,#687);
#689=PRODUCT_DEFINITION_FORMATION('',$,#694);
#690=PRODUCT_RELATED_PRODUCT_CATEGORY('1010644_3D','1010644_3D',(#694));
#691=APPLICATION_PROTOCOL_DEFINITION('international standard',
'automotive_design',2009,#692);
#692=APPLICATION_CONTEXT(
'Core Data for Automotive Mechanical Design Process');
#693=PRODUCT_CONTEXT('part definition',#692,'mechanical');
#694=PRODUCT('1010644_3D','1010644_3D',$,(#693));
#695=PRESENTATION_STYLE_ASSIGNMENT((#696));
#696=SURFACE_STYLE_USAGE(.BOTH.,#699);
#697=SURFACE_STYLE_RENDERING_WITH_PROPERTIES($,#703,(#698));
#698=SURFACE_STYLE_TRANSPARENT(0.);
#699=SURFACE_SIDE_STYLE('',(#700,#697));
#700=SURFACE_STYLE_FILL_AREA(#701);
#701=FILL_AREA_STYLE('',(#702));
#702=FILL_AREA_STYLE_COLOUR('',#703);
#703=COLOUR_RGB('',0.541176470588235,0.231372549019608,0.231372549019608);
ENDSEC;
END-ISO-10303-21;
