ISO-10303-21;
HEADER;
/* Generated by software containing ST-Developer
 * from STEP Tools, Inc. (www.steptools.com) 
 */

FILE_DESCRIPTION(
/* description */ (''),
/* implementation_level */ '2;1');

FILE_NAME(
/* name */ 
'F:\\User\\Daten\\DWG\\Anw\\FW\\Zwischenspeicher\\\X\C4nderung filotec
\\3d\\4\\1010383_3D.stp',
/* time_stamp */ '2018-04-18T09:26:36+02:00',
/* author */ ('watermann'),
/* organization */ ('Fa. Bopla'),
/* preprocessor_version */ 'ST-DEVELOPER v16.5',
/* originating_system */ 'Autodesk Inventor 2017',
/* authorisation */ '');

FILE_SCHEMA (('AUTOMOTIVE_DESIGN { 1 0 10303 214 3 1 1 }'));
ENDSEC;

DATA;
#10=MECHANICAL_DESIGN_GEOMETRIC_PRESENTATION_REPRESENTATION('',(#13),#425);
#11=SHAPE_REPRESENTATION_RELATIONSHIP('SRR','None',#434,#12);
#12=ADVANCED_BREP_SHAPE_REPRESENTATION('',(#14),#424);
#13=STYLED_ITEM('',(#443),#14);
#14=MANIFOLD_SOLID_BREP('Volumenk\X\F6rper1',#245);
#15=PLANE('',#266);
#16=PLANE('',#267);
#17=PLANE('',#273);
#18=PLANE('',#276);
#19=PLANE('',#279);
#20=PLANE('',#280);
#21=LINE('',#377,#37);
#22=LINE('',#380,#38);
#23=LINE('',#383,#39);
#24=LINE('',#385,#40);
#25=LINE('',#386,#41);
#26=LINE('',#389,#42);
#27=LINE('',#393,#43);
#28=LINE('',#397,#44);
#29=LINE('',#401,#45);
#30=LINE('',#405,#46);
#31=LINE('',#406,#47);
#32=LINE('',#410,#48);
#33=LINE('',#413,#49);
#34=LINE('',#414,#50);
#35=LINE('',#417,#51);
#36=LINE('',#420,#52);
#37=VECTOR('',#307,10.);
#38=VECTOR('',#310,10.);
#39=VECTOR('',#313,10.);
#40=VECTOR('',#314,10.);
#41=VECTOR('',#315,10.);
#42=VECTOR('',#318,10.);
#43=VECTOR('',#321,10.);
#44=VECTOR('',#324,10.);
#45=VECTOR('',#329,10.);
#46=VECTOR('',#334,10.);
#47=VECTOR('',#335,10.);
#48=VECTOR('',#340,10.);
#49=VECTOR('',#343,10.);
#50=VECTOR('',#344,10.);
#51=VECTOR('',#347,10.);
#52=VECTOR('',#352,10.);
#53=CYLINDRICAL_SURFACE('',#256,1.75);
#54=CYLINDRICAL_SURFACE('',#261,1.75);
#55=CYLINDRICAL_SURFACE('',#263,1.2);
#56=CYLINDRICAL_SURFACE('',#271,1.2);
#57=CYLINDRICAL_SURFACE('',#274,1.2);
#58=CYLINDRICAL_SURFACE('',#277,1.2);
#59=FACE_BOUND('',#82,.T.);
#60=FACE_BOUND('',#84,.T.);
#61=FACE_BOUND('',#86,.T.);
#62=FACE_BOUND('',#88,.T.);
#63=FACE_BOUND('',#92,.T.);
#64=FACE_BOUND('',#93,.T.);
#65=FACE_BOUND('',#101,.T.);
#66=FACE_BOUND('',#102,.T.);
#67=FACE_OUTER_BOUND('',#81,.T.);
#68=FACE_OUTER_BOUND('',#83,.T.);
#69=FACE_OUTER_BOUND('',#85,.T.);
#70=FACE_OUTER_BOUND('',#87,.T.);
#71=FACE_OUTER_BOUND('',#89,.T.);
#72=FACE_OUTER_BOUND('',#90,.T.);
#73=FACE_OUTER_BOUND('',#91,.T.);
#74=FACE_OUTER_BOUND('',#94,.T.);
#75=FACE_OUTER_BOUND('',#95,.T.);
#76=FACE_OUTER_BOUND('',#96,.T.);
#77=FACE_OUTER_BOUND('',#97,.T.);
#78=FACE_OUTER_BOUND('',#98,.T.);
#79=FACE_OUTER_BOUND('',#99,.T.);
#80=FACE_OUTER_BOUND('',#100,.T.);
#81=EDGE_LOOP('',(#169));
#82=EDGE_LOOP('',(#170));
#83=EDGE_LOOP('',(#171));
#84=EDGE_LOOP('',(#172));
#85=EDGE_LOOP('',(#173));
#86=EDGE_LOOP('',(#174));
#87=EDGE_LOOP('',(#175));
#88=EDGE_LOOP('',(#176));
#89=EDGE_LOOP('',(#177,#178,#179,#180));
#90=EDGE_LOOP('',(#181,#182,#183,#184));
#91=EDGE_LOOP('',(#185,#186,#187,#188,#189,#190,#191,#192));
#92=EDGE_LOOP('',(#193));
#93=EDGE_LOOP('',(#194));
#94=EDGE_LOOP('',(#195,#196,#197,#198));
#95=EDGE_LOOP('',(#199,#200,#201,#202));
#96=EDGE_LOOP('',(#203,#204,#205,#206));
#97=EDGE_LOOP('',(#207,#208,#209,#210));
#98=EDGE_LOOP('',(#211,#212,#213,#214));
#99=EDGE_LOOP('',(#215,#216,#217,#218));
#100=EDGE_LOOP('',(#219,#220,#221,#222,#223,#224,#225,#226));
#101=EDGE_LOOP('',(#227));
#102=EDGE_LOOP('',(#228));
#103=CIRCLE('',#254,3.25);
#104=CIRCLE('',#255,1.75);
#105=CIRCLE('',#257,1.75);
#106=CIRCLE('',#259,3.25);
#107=CIRCLE('',#260,1.75);
#108=CIRCLE('',#262,1.75);
#109=CIRCLE('',#264,1.2);
#110=CIRCLE('',#265,1.2);
#111=CIRCLE('',#268,1.2);
#112=CIRCLE('',#269,1.2);
#113=CIRCLE('',#270,1.2);
#114=CIRCLE('',#272,1.2);
#115=CIRCLE('',#275,1.2);
#116=CIRCLE('',#278,1.2);
#117=VERTEX_POINT('',#357);
#118=VERTEX_POINT('',#359);
#119=VERTEX_POINT('',#362);
#120=VERTEX_POINT('',#365);
#121=VERTEX_POINT('',#367);
#122=VERTEX_POINT('',#370);
#123=VERTEX_POINT('',#373);
#124=VERTEX_POINT('',#374);
#125=VERTEX_POINT('',#376);
#126=VERTEX_POINT('',#378);
#127=VERTEX_POINT('',#382);
#128=VERTEX_POINT('',#384);
#129=VERTEX_POINT('',#388);
#130=VERTEX_POINT('',#390);
#131=VERTEX_POINT('',#392);
#132=VERTEX_POINT('',#394);
#133=VERTEX_POINT('',#396);
#134=VERTEX_POINT('',#400);
#135=VERTEX_POINT('',#404);
#136=VERTEX_POINT('',#408);
#137=VERTEX_POINT('',#412);
#138=VERTEX_POINT('',#416);
#139=EDGE_CURVE('',#117,#117,#103,.T.);
#140=EDGE_CURVE('',#118,#118,#104,.T.);
#141=EDGE_CURVE('',#119,#119,#105,.T.);
#142=EDGE_CURVE('',#120,#120,#106,.T.);
#143=EDGE_CURVE('',#121,#121,#107,.T.);
#144=EDGE_CURVE('',#122,#122,#108,.T.);
#145=EDGE_CURVE('',#123,#124,#109,.T.);
#146=EDGE_CURVE('',#124,#125,#21,.T.);
#147=EDGE_CURVE('',#125,#126,#110,.T.);
#148=EDGE_CURVE('',#126,#123,#22,.T.);
#149=EDGE_CURVE('',#124,#127,#23,.T.);
#150=EDGE_CURVE('',#128,#127,#24,.T.);
#151=EDGE_CURVE('',#128,#125,#25,.T.);
#152=EDGE_CURVE('',#129,#123,#26,.T.);
#153=EDGE_CURVE('',#130,#129,#111,.T.);
#154=EDGE_CURVE('',#131,#130,#27,.T.);
#155=EDGE_CURVE('',#132,#131,#112,.T.);
#156=EDGE_CURVE('',#133,#132,#28,.T.);
#157=EDGE_CURVE('',#127,#133,#113,.T.);
#158=EDGE_CURVE('',#133,#134,#29,.T.);
#159=EDGE_CURVE('',#134,#128,#114,.T.);
#160=EDGE_CURVE('',#135,#132,#30,.T.);
#161=EDGE_CURVE('',#135,#134,#31,.T.);
#162=EDGE_CURVE('',#136,#135,#115,.T.);
#163=EDGE_CURVE('',#131,#136,#32,.T.);
#164=EDGE_CURVE('',#137,#130,#33,.T.);
#165=EDGE_CURVE('',#137,#136,#34,.T.);
#166=EDGE_CURVE('',#129,#138,#35,.T.);
#167=EDGE_CURVE('',#138,#137,#116,.T.);
#168=EDGE_CURVE('',#126,#138,#36,.T.);
#169=ORIENTED_EDGE('',*,*,#139,.F.);
#170=ORIENTED_EDGE('',*,*,#140,.F.);
#171=ORIENTED_EDGE('',*,*,#141,.F.);
#172=ORIENTED_EDGE('',*,*,#140,.T.);
#173=ORIENTED_EDGE('',*,*,#142,.F.);
#174=ORIENTED_EDGE('',*,*,#143,.F.);
#175=ORIENTED_EDGE('',*,*,#144,.F.);
#176=ORIENTED_EDGE('',*,*,#143,.T.);
#177=ORIENTED_EDGE('',*,*,#145,.T.);
#178=ORIENTED_EDGE('',*,*,#146,.T.);
#179=ORIENTED_EDGE('',*,*,#147,.T.);
#180=ORIENTED_EDGE('',*,*,#148,.T.);
#181=ORIENTED_EDGE('',*,*,#146,.F.);
#182=ORIENTED_EDGE('',*,*,#149,.T.);
#183=ORIENTED_EDGE('',*,*,#150,.F.);
#184=ORIENTED_EDGE('',*,*,#151,.T.);
#185=ORIENTED_EDGE('',*,*,#145,.F.);
#186=ORIENTED_EDGE('',*,*,#152,.F.);
#187=ORIENTED_EDGE('',*,*,#153,.F.);
#188=ORIENTED_EDGE('',*,*,#154,.F.);
#189=ORIENTED_EDGE('',*,*,#155,.F.);
#190=ORIENTED_EDGE('',*,*,#156,.F.);
#191=ORIENTED_EDGE('',*,*,#157,.F.);
#192=ORIENTED_EDGE('',*,*,#149,.F.);
#193=ORIENTED_EDGE('',*,*,#141,.T.);
#194=ORIENTED_EDGE('',*,*,#144,.T.);
#195=ORIENTED_EDGE('',*,*,#157,.T.);
#196=ORIENTED_EDGE('',*,*,#158,.T.);
#197=ORIENTED_EDGE('',*,*,#159,.T.);
#198=ORIENTED_EDGE('',*,*,#150,.T.);
#199=ORIENTED_EDGE('',*,*,#158,.F.);
#200=ORIENTED_EDGE('',*,*,#156,.T.);
#201=ORIENTED_EDGE('',*,*,#160,.F.);
#202=ORIENTED_EDGE('',*,*,#161,.T.);
#203=ORIENTED_EDGE('',*,*,#162,.T.);
#204=ORIENTED_EDGE('',*,*,#160,.T.);
#205=ORIENTED_EDGE('',*,*,#155,.T.);
#206=ORIENTED_EDGE('',*,*,#163,.T.);
#207=ORIENTED_EDGE('',*,*,#163,.F.);
#208=ORIENTED_EDGE('',*,*,#154,.T.);
#209=ORIENTED_EDGE('',*,*,#164,.F.);
#210=ORIENTED_EDGE('',*,*,#165,.T.);
#211=ORIENTED_EDGE('',*,*,#153,.T.);
#212=ORIENTED_EDGE('',*,*,#166,.T.);
#213=ORIENTED_EDGE('',*,*,#167,.T.);
#214=ORIENTED_EDGE('',*,*,#164,.T.);
#215=ORIENTED_EDGE('',*,*,#148,.F.);
#216=ORIENTED_EDGE('',*,*,#168,.T.);
#217=ORIENTED_EDGE('',*,*,#166,.F.);
#218=ORIENTED_EDGE('',*,*,#152,.T.);
#219=ORIENTED_EDGE('',*,*,#147,.F.);
#220=ORIENTED_EDGE('',*,*,#151,.F.);
#221=ORIENTED_EDGE('',*,*,#159,.F.);
#222=ORIENTED_EDGE('',*,*,#161,.F.);
#223=ORIENTED_EDGE('',*,*,#162,.F.);
#224=ORIENTED_EDGE('',*,*,#165,.F.);
#225=ORIENTED_EDGE('',*,*,#167,.F.);
#226=ORIENTED_EDGE('',*,*,#168,.F.);
#227=ORIENTED_EDGE('',*,*,#139,.T.);
#228=ORIENTED_EDGE('',*,*,#142,.T.);
#229=CONICAL_SURFACE('',#253,2.5,45.);
#230=CONICAL_SURFACE('',#258,2.5,45.);
#231=ADVANCED_FACE('',(#67,#59),#229,.F.);
#232=ADVANCED_FACE('',(#68,#60),#53,.F.);
#233=ADVANCED_FACE('',(#69,#61),#230,.F.);
#234=ADVANCED_FACE('',(#70,#62),#54,.F.);
#235=ADVANCED_FACE('',(#71),#55,.T.);
#236=ADVANCED_FACE('',(#72),#15,.T.);
#237=ADVANCED_FACE('',(#73,#63,#64),#16,.F.);
#238=ADVANCED_FACE('',(#74),#56,.T.);
#239=ADVANCED_FACE('',(#75),#17,.T.);
#240=ADVANCED_FACE('',(#76),#57,.T.);
#241=ADVANCED_FACE('',(#77),#18,.T.);
#242=ADVANCED_FACE('',(#78),#58,.T.);
#243=ADVANCED_FACE('',(#79),#19,.T.);
#244=ADVANCED_FACE('',(#80,#65,#66),#20,.T.);
#245=CLOSED_SHELL('',(#231,#232,#233,#234,#235,#236,#237,#238,#239,#240,
#241,#242,#243,#244));
#246=DATE_TIME_ROLE('creation_date');
#247=APPLIED_DATE_AND_TIME_ASSIGNMENT(#248,#246,(#436));
#248=DATE_AND_TIME(#249,#250);
#249=CALENDAR_DATE(2012,6,7);
#250=LOCAL_TIME(7,57,46.,#251);
#251=COORDINATED_UNIVERSAL_TIME_OFFSET(0,0,.BEHIND.);
#252=AXIS2_PLACEMENT_3D('placement',#355,#281,#282);
#253=AXIS2_PLACEMENT_3D('',#356,#283,#284);
#254=AXIS2_PLACEMENT_3D('',#358,#285,#286);
#255=AXIS2_PLACEMENT_3D('',#360,#287,#288);
#256=AXIS2_PLACEMENT_3D('',#361,#289,#290);
#257=AXIS2_PLACEMENT_3D('',#363,#291,#292);
#258=AXIS2_PLACEMENT_3D('',#364,#293,#294);
#259=AXIS2_PLACEMENT_3D('',#366,#295,#296);
#260=AXIS2_PLACEMENT_3D('',#368,#297,#298);
#261=AXIS2_PLACEMENT_3D('',#369,#299,#300);
#262=AXIS2_PLACEMENT_3D('',#371,#301,#302);
#263=AXIS2_PLACEMENT_3D('',#372,#303,#304);
#264=AXIS2_PLACEMENT_3D('',#375,#305,#306);
#265=AXIS2_PLACEMENT_3D('',#379,#308,#309);
#266=AXIS2_PLACEMENT_3D('',#381,#311,#312);
#267=AXIS2_PLACEMENT_3D('',#387,#316,#317);
#268=AXIS2_PLACEMENT_3D('',#391,#319,#320);
#269=AXIS2_PLACEMENT_3D('',#395,#322,#323);
#270=AXIS2_PLACEMENT_3D('',#398,#325,#326);
#271=AXIS2_PLACEMENT_3D('',#399,#327,#328);
#272=AXIS2_PLACEMENT_3D('',#402,#330,#331);
#273=AXIS2_PLACEMENT_3D('',#403,#332,#333);
#274=AXIS2_PLACEMENT_3D('',#407,#336,#337);
#275=AXIS2_PLACEMENT_3D('',#409,#338,#339);
#276=AXIS2_PLACEMENT_3D('',#411,#341,#342);
#277=AXIS2_PLACEMENT_3D('',#415,#345,#346);
#278=AXIS2_PLACEMENT_3D('',#418,#348,#349);
#279=AXIS2_PLACEMENT_3D('',#419,#350,#351);
#280=AXIS2_PLACEMENT_3D('',#421,#353,#354);
#281=DIRECTION('axis',(0.,0.,1.));
#282=DIRECTION('refdir',(1.,0.,0.));
#283=DIRECTION('center_axis',(0.,0.,1.));
#284=DIRECTION('ref_axis',(1.,0.,0.));
#285=DIRECTION('center_axis',(0.,0.,-1.));
#286=DIRECTION('ref_axis',(1.,0.,0.));
#287=DIRECTION('center_axis',(0.,0.,1.));
#288=DIRECTION('ref_axis',(1.,0.,0.));
#289=DIRECTION('center_axis',(0.,0.,1.));
#290=DIRECTION('ref_axis',(1.,0.,0.));
#291=DIRECTION('center_axis',(0.,0.,1.));
#292=DIRECTION('ref_axis',(1.,0.,0.));
#293=DIRECTION('center_axis',(0.,0.,1.));
#294=DIRECTION('ref_axis',(1.,0.,0.));
#295=DIRECTION('center_axis',(0.,0.,-1.));
#296=DIRECTION('ref_axis',(1.,0.,0.));
#297=DIRECTION('center_axis',(0.,0.,1.));
#298=DIRECTION('ref_axis',(1.,0.,0.));
#299=DIRECTION('center_axis',(0.,0.,1.));
#300=DIRECTION('ref_axis',(1.,0.,0.));
#301=DIRECTION('center_axis',(0.,0.,1.));
#302=DIRECTION('ref_axis',(1.,0.,0.));
#303=DIRECTION('center_axis',(0.,0.,-1.));
#304=DIRECTION('ref_axis',(0.707106781186547,-0.707106781186547,0.));
#305=DIRECTION('center_axis',(0.,0.,1.));
#306=DIRECTION('ref_axis',(0.707106781186547,-0.707106781186547,0.));
#307=DIRECTION('',(0.,0.,1.));
#308=DIRECTION('center_axis',(0.,0.,-1.));
#309=DIRECTION('ref_axis',(0.707106781186547,-0.707106781186547,0.));
#310=DIRECTION('',(0.,0.,-1.));
#311=DIRECTION('center_axis',(1.,0.,0.));
#312=DIRECTION('ref_axis',(0.,0.,-1.));
#313=DIRECTION('',(0.,1.,0.));
#314=DIRECTION('',(0.,0.,-1.));
#315=DIRECTION('',(0.,-1.,0.));
#316=DIRECTION('center_axis',(0.,0.,1.));
#317=DIRECTION('ref_axis',(1.,0.,0.));
#318=DIRECTION('',(1.,0.,0.));
#319=DIRECTION('center_axis',(0.,0.,1.));
#320=DIRECTION('ref_axis',(-0.707106781186547,-0.707106781186547,0.));
#321=DIRECTION('',(0.,-1.,0.));
#322=DIRECTION('center_axis',(0.,0.,1.));
#323=DIRECTION('ref_axis',(-0.707106781186547,0.707106781186547,0.));
#324=DIRECTION('',(-1.,0.,0.));
#325=DIRECTION('center_axis',(0.,0.,1.));
#326=DIRECTION('ref_axis',(0.707106781186547,0.707106781186547,0.));
#327=DIRECTION('center_axis',(0.,0.,-1.));
#328=DIRECTION('ref_axis',(0.707106781186547,0.707106781186547,0.));
#329=DIRECTION('',(0.,0.,1.));
#330=DIRECTION('center_axis',(0.,0.,-1.));
#331=DIRECTION('ref_axis',(0.707106781186547,0.707106781186547,0.));
#332=DIRECTION('center_axis',(0.,1.,0.));
#333=DIRECTION('ref_axis',(0.,0.,1.));
#334=DIRECTION('',(0.,0.,-1.));
#335=DIRECTION('',(1.,0.,0.));
#336=DIRECTION('center_axis',(0.,0.,1.));
#337=DIRECTION('ref_axis',(-0.707106781186547,0.707106781186547,0.));
#338=DIRECTION('center_axis',(0.,0.,-1.));
#339=DIRECTION('ref_axis',(-0.707106781186547,0.707106781186547,0.));
#340=DIRECTION('',(0.,0.,1.));
#341=DIRECTION('center_axis',(-1.,0.,0.));
#342=DIRECTION('ref_axis',(0.,0.,1.));
#343=DIRECTION('',(0.,0.,-1.));
#344=DIRECTION('',(0.,1.,0.));
#345=DIRECTION('center_axis',(0.,0.,-1.));
#346=DIRECTION('ref_axis',(-0.707106781186547,-0.707106781186547,0.));
#347=DIRECTION('',(0.,0.,1.));
#348=DIRECTION('center_axis',(0.,0.,-1.));
#349=DIRECTION('ref_axis',(-0.707106781186547,-0.707106781186547,0.));
#350=DIRECTION('center_axis',(0.,-1.,0.));
#351=DIRECTION('ref_axis',(0.,0.,-1.));
#352=DIRECTION('',(-1.,0.,0.));
#353=DIRECTION('center_axis',(0.,0.,1.));
#354=DIRECTION('ref_axis',(1.,0.,0.));
#355=CARTESIAN_POINT('',(0.,0.,0.));
#356=CARTESIAN_POINT('Origin',(17.55,0.,0.25));
#357=CARTESIAN_POINT('',(20.8,0.,1.));
#358=CARTESIAN_POINT('Origin',(17.55,0.,1.));
#359=CARTESIAN_POINT('',(19.3,0.,-0.5));
#360=CARTESIAN_POINT('Origin',(17.55,0.,-0.500000000000004));
#361=CARTESIAN_POINT('Origin',(17.55,0.,-47.8163906900131));
#362=CARTESIAN_POINT('',(15.8,-2.14313189850787E-16,-0.999999999999996));
#363=CARTESIAN_POINT('Origin',(17.55,0.,-0.999999999999996));
#364=CARTESIAN_POINT('Origin',(-17.55,0.,0.25));
#365=CARTESIAN_POINT('',(-14.3,0.,1.));
#366=CARTESIAN_POINT('Origin',(-17.55,0.,1.));
#367=CARTESIAN_POINT('',(-15.8,0.,-0.5));
#368=CARTESIAN_POINT('Origin',(-17.55,0.,-0.500000000000004));
#369=CARTESIAN_POINT('Origin',(-17.55,0.,-47.8163906900131));
#370=CARTESIAN_POINT('',(-19.3,-2.14313189850787E-16,-0.999999999999996));
#371=CARTESIAN_POINT('Origin',(-17.55,0.,-0.999999999999996));
#372=CARTESIAN_POINT('Origin',(19.8,-11.2,0.));
#373=CARTESIAN_POINT('',(19.8,-12.4,-1.));
#374=CARTESIAN_POINT('',(21.,-11.2,-1.));
#375=CARTESIAN_POINT('Origin',(19.8,-11.2,-1.));
#376=CARTESIAN_POINT('',(21.,-11.2,1.));
#377=CARTESIAN_POINT('',(21.,-11.2,0.));
#378=CARTESIAN_POINT('',(19.8,-12.4,1.));
#379=CARTESIAN_POINT('Origin',(19.8,-11.2,1.));
#380=CARTESIAN_POINT('',(19.8,-12.4,0.));
#381=CARTESIAN_POINT('Origin',(21.,12.4,0.));
#382=CARTESIAN_POINT('',(21.,11.2,-1.));
#383=CARTESIAN_POINT('',(21.,12.4,-1.));
#384=CARTESIAN_POINT('',(21.,11.2,1.));
#385=CARTESIAN_POINT('',(21.,11.2,0.));
#386=CARTESIAN_POINT('',(21.,12.4,1.));
#387=CARTESIAN_POINT('Origin',(0.,1.49883130161698E-16,-1.));
#388=CARTESIAN_POINT('',(-19.8,-12.4,-1.));
#389=CARTESIAN_POINT('',(21.,-12.4,-1.));
#390=CARTESIAN_POINT('',(-21.,-11.2,-1.));
#391=CARTESIAN_POINT('Origin',(-19.8,-11.2,-1.));
#392=CARTESIAN_POINT('',(-21.,11.2,-1.));
#393=CARTESIAN_POINT('',(-21.,-12.4,-1.));
#394=CARTESIAN_POINT('',(-19.8,12.4,-1.));
#395=CARTESIAN_POINT('Origin',(-19.8,11.2,-1.));
#396=CARTESIAN_POINT('',(19.8,12.4,-1.));
#397=CARTESIAN_POINT('',(-21.,12.4,-1.));
#398=CARTESIAN_POINT('Origin',(19.8,11.2,-1.));
#399=CARTESIAN_POINT('Origin',(19.8,11.2,0.));
#400=CARTESIAN_POINT('',(19.8,12.4,1.));
#401=CARTESIAN_POINT('',(19.8,12.4,0.));
#402=CARTESIAN_POINT('Origin',(19.8,11.2,1.));
#403=CARTESIAN_POINT('Origin',(-21.,12.4,0.));
#404=CARTESIAN_POINT('',(-19.8,12.4,1.));
#405=CARTESIAN_POINT('',(-19.8,12.4,0.));
#406=CARTESIAN_POINT('',(-21.,12.4,1.));
#407=CARTESIAN_POINT('Origin',(-19.8,11.2,0.));
#408=CARTESIAN_POINT('',(-21.,11.2,1.));
#409=CARTESIAN_POINT('Origin',(-19.8,11.2,1.));
#410=CARTESIAN_POINT('',(-21.,11.2,0.));
#411=CARTESIAN_POINT('Origin',(-21.,-12.4,0.));
#412=CARTESIAN_POINT('',(-21.,-11.2,1.));
#413=CARTESIAN_POINT('',(-21.,-11.2,0.));
#414=CARTESIAN_POINT('',(-21.,-12.4,1.));
#415=CARTESIAN_POINT('Origin',(-19.8,-11.2,0.));
#416=CARTESIAN_POINT('',(-19.8,-12.4,1.));
#417=CARTESIAN_POINT('',(-19.8,-12.4,0.));
#418=CARTESIAN_POINT('Origin',(-19.8,-11.2,1.));
#419=CARTESIAN_POINT('Origin',(21.,-12.4,0.));
#420=CARTESIAN_POINT('',(21.,-12.4,1.));
#421=CARTESIAN_POINT('Origin',(0.,-1.49883130161698E-16,1.));
#422=UNCERTAINTY_MEASURE_WITH_UNIT(LENGTH_MEASURE(0.01),#426,
'DISTANCE_ACCURACY_VALUE',
'Maximum model space distance between geometric entities at asserted c
onnectivities');
#423=UNCERTAINTY_MEASURE_WITH_UNIT(LENGTH_MEASURE(1.E-6),#426,
'DISTANCE_ACCURACY_VALUE',
'Maximum model space distance between geometric entities at asserted c
onnectivities');
#424=(
GEOMETRIC_REPRESENTATION_CONTEXT(3)
GLOBAL_UNCERTAINTY_ASSIGNED_CONTEXT((#422))
GLOBAL_UNIT_ASSIGNED_CONTEXT((#426,#429,#427))
REPRESENTATION_CONTEXT('','3D')
);
#425=(
GEOMETRIC_REPRESENTATION_CONTEXT(3)
GLOBAL_UNCERTAINTY_ASSIGNED_CONTEXT((#423))
GLOBAL_UNIT_ASSIGNED_CONTEXT((#426,#429,#427))
REPRESENTATION_CONTEXT('','3D')
);
#426=(
LENGTH_UNIT()
NAMED_UNIT(*)
SI_UNIT(.MILLI.,.METRE.)
);
#427=(
NAMED_UNIT(*)
SI_UNIT($,.STERADIAN.)
SOLID_ANGLE_UNIT()
);
#428=DIMENSIONAL_EXPONENTS(0.,0.,0.,0.,0.,0.,0.);
#429=(
CONVERSION_BASED_UNIT('degree',#431)
NAMED_UNIT(#428)
PLANE_ANGLE_UNIT()
);
#430=(
NAMED_UNIT(*)
PLANE_ANGLE_UNIT()
SI_UNIT($,.RADIAN.)
);
#431=PLANE_ANGLE_MEASURE_WITH_UNIT(PLANE_ANGLE_MEASURE(0.01745329252),#430);
#432=SHAPE_DEFINITION_REPRESENTATION(#433,#434);
#433=PRODUCT_DEFINITION_SHAPE('',$,#436);
#434=SHAPE_REPRESENTATION('',(#252),#424);
#435=PRODUCT_DEFINITION_CONTEXT('part definition',#440,'design');
#436=PRODUCT_DEFINITION('1010383_3D','1010383_3D',#437,#435);
#437=PRODUCT_DEFINITION_FORMATION('',$,#442);
#438=PRODUCT_RELATED_PRODUCT_CATEGORY('1010383_3D','1010383_3D',(#442));
#439=APPLICATION_PROTOCOL_DEFINITION('international standard',
'automotive_design',2009,#440);
#440=APPLICATION_CONTEXT(
'Core Data for Automotive Mechanical Design Process');
#441=PRODUCT_CONTEXT('part definition',#440,'mechanical');
#442=PRODUCT('1010383_3D','1010383_3D',$,(#441));
#443=PRESENTATION_STYLE_ASSIGNMENT((#444));
#444=SURFACE_STYLE_USAGE(.BOTH.,#445);
#445=SURFACE_SIDE_STYLE('',(#446));
#446=SURFACE_STYLE_FILL_AREA(#447);
#447=FILL_AREA_STYLE('',(#448));
#448=FILL_AREA_STYLE_COLOUR('',#449);
#449=COLOUR_RGB('',0.811764705882353,0.8,0.823529411764706);
ENDSEC;
END-ISO-10303-21;
