ISO-10303-21;
HEADER;
/****************************************************************
 * Generated by software with PDElib inside                    *
 * PDElib Version v51a, created Wed 11/30/2011                  *
 * ITI Transcendata (http://www.transcendata.com/)              *
 ****************************************************************/
FILE_DESCRIPTION((''),'2;1');
FILE_NAME('F:\\User\\Daten\\DWG\\Anw\\FW\\Zwischenspeicher\\95011325_IT 000025 DS-GRUEN.stp','2013-08-20T08:42:42',('Watermann'),(''),'Autodesk Inventor 2013','Autodesk Inventor 2013','');
FILE_SCHEMA(('AUTOMOTIVE_DESIGN { 1 0 10303 214 1 1 1 1 }'));
ENDSEC;
DATA;
#5=APPLICATION_CONTEXT('automotive design');
#6=APPLICATION_PROTOCOL_DEFINITION('International Standard','automotive_design',2001,#5);
#7=PRODUCT_CONTEXT('',#5,'mechanical');
#8=PRODUCT('95011120_IT 000020 DS-dunkelgrau','95011120_IT 000020 DS-dunkelgrau',$,(#7));
#9=PRODUCT_RELATED_PRODUCT_CATEGORY('part',$,(#8));
#10=PRODUCT_DEFINITION_FORMATION('',$,#8);
#11=PRODUCT_DEFINITION_CONTEXT('part definition',#5,'design');
#12=PRODUCT_DEFINITION('',$,#10,#11);
#18=(NAMED_UNIT(*)PLANE_ANGLE_UNIT()SI_UNIT($,.RADIAN.));
#19=DIMENSIONAL_EXPONENTS(0.0,0.0,0.0,0.0,0.0,0.0,0.0);
#20=PLANE_ANGLE_MEASURE_WITH_UNIT(PLANE_ANGLE_MEASURE(0.0174532925),#18);
#24=(CONVERSION_BASED_UNIT('DEGREE',#20)NAMED_UNIT(#19)PLANE_ANGLE_UNIT());
#28=(NAMED_UNIT(*)SI_UNIT($,.STERADIAN.)SOLID_ANGLE_UNIT());
#32=(LENGTH_UNIT()NAMED_UNIT(*)SI_UNIT(.MILLI.,.METRE.));
#34=UNCERTAINTY_MEASURE_WITH_UNIT(LENGTH_MEASURE(0.01),#32,'DISTANCE_ACCURACY_VALUE','');
#36=(GEOMETRIC_REPRESENTATION_CONTEXT(3)GLOBAL_UNCERTAINTY_ASSIGNED_CONTEXT((#34))GLOBAL_UNIT_ASSIGNED_CONTEXT((#24,#28,#32))REPRESENTATION_CONTEXT('None','None'));
#37=AXIS2_PLACEMENT_3D('',#38,#39,#40);
#38=CARTESIAN_POINT('',(0.0,0.0,0.0));
#39=DIRECTION('',(0.0,0.0,1.0));
#40=DIRECTION('',(1.0,0.0,0.0));
#41=SHAPE_REPRESENTATION('',(#37,#548,#560,#572,#584),#36);
#42=PRODUCT_DEFINITION_SHAPE('','',#12);
#43=SHAPE_DEFINITION_REPRESENTATION(#42,#41);
#44=APPLICATION_CONTEXT('automotive design');
#45=APPLICATION_PROTOCOL_DEFINITION('International Standard','automotive_design',2001,#44);
#46=PRODUCT_CONTEXT('',#44,'mechanical');
#47=PRODUCT('95011120_IT 000020 DS-dunkelgrau','95011120_IT 000020 DS-dunkelgrau',$,(#46));
#48=PRODUCT_RELATED_PRODUCT_CATEGORY('part',$,(#47));
#49=PRODUCT_DEFINITION_FORMATION('',$,#47);
#50=PRODUCT_DEFINITION_CONTEXT('part definition',#44,'design');
#51=PRODUCT_DEFINITION('',$,#49,#50);
#57=(NAMED_UNIT(*)PLANE_ANGLE_UNIT()SI_UNIT($,.RADIAN.));
#58=DIMENSIONAL_EXPONENTS(0.0,0.0,0.0,0.0,0.0,0.0,0.0);
#59=PLANE_ANGLE_MEASURE_WITH_UNIT(PLANE_ANGLE_MEASURE(0.0174532925),#57);
#63=(CONVERSION_BASED_UNIT('DEGREE',#59)NAMED_UNIT(#58)PLANE_ANGLE_UNIT());
#67=(NAMED_UNIT(*)SI_UNIT($,.STERADIAN.)SOLID_ANGLE_UNIT());
#71=(LENGTH_UNIT()NAMED_UNIT(*)SI_UNIT(.MILLI.,.METRE.));
#73=UNCERTAINTY_MEASURE_WITH_UNIT(LENGTH_MEASURE(0.01),#71,'DISTANCE_ACCURACY_VALUE','');
#75=(GEOMETRIC_REPRESENTATION_CONTEXT(3)GLOBAL_UNCERTAINTY_ASSIGNED_CONTEXT((#73))GLOBAL_UNIT_ASSIGNED_CONTEXT((#63,#67,#71))REPRESENTATION_CONTEXT('None','None'));
#76=AXIS2_PLACEMENT_3D('',#77,#78,#79);
#77=CARTESIAN_POINT('',(0.0,0.0,0.0));
#78=DIRECTION('',(0.0,0.0,1.0));
#79=DIRECTION('',(1.0,0.0,0.0));
#80=SHAPE_REPRESENTATION('',(#76),#75);
#81=PRODUCT_DEFINITION_SHAPE('','',#51);
#82=SHAPE_DEFINITION_REPRESENTATION(#81,#80);
#88=(NAMED_UNIT(*)PLANE_ANGLE_UNIT()SI_UNIT($,.RADIAN.));
#89=DIMENSIONAL_EXPONENTS(0.0,0.0,0.0,0.0,0.0,0.0,0.0);
#90=PLANE_ANGLE_MEASURE_WITH_UNIT(PLANE_ANGLE_MEASURE(0.0174532925),#88);
#94=(CONVERSION_BASED_UNIT('DEGREE',#90)NAMED_UNIT(#89)PLANE_ANGLE_UNIT());
#98=(NAMED_UNIT(*)SI_UNIT($,.STERADIAN.)SOLID_ANGLE_UNIT());
#102=(LENGTH_UNIT()NAMED_UNIT(*)SI_UNIT(.MILLI.,.METRE.));
#104=UNCERTAINTY_MEASURE_WITH_UNIT(LENGTH_MEASURE(0.000001),#102,'DISTANCE_ACCURACY_VALUE','');
#106=(GEOMETRIC_REPRESENTATION_CONTEXT(3)GLOBAL_UNCERTAINTY_ASSIGNED_CONTEXT((#104))GLOBAL_UNIT_ASSIGNED_CONTEXT((#94,#98,#102))REPRESENTATION_CONTEXT('','3D'));
#107=CARTESIAN_POINT('',(-57.23288817746333,0.050680450134124,-104.09999999999999));
#108=DIRECTION('',(0.0,0.0,1.0));
#109=DIRECTION('',(1.0,0.0,0.0));
#110=AXIS2_PLACEMENT_3D('',#107,#108,#109);
#111=PLANE('',#110);
#112=CARTESIAN_POINT('',(-53.260283505121571,-10.982232897612871,-104.09999999999999));
#113=VERTEX_POINT('',#112);
#114=CARTESIAN_POINT('',(-53.626630115885476,-11.284494640130617,-104.09999999999999));
#115=VERTEX_POINT('',#114);
#116=CARTESIAN_POINT('',(-53.493190942717987,-11.073085115594987,-104.09999999999999));
#117=DIRECTION('',(0.0,0.0,-1.0));
#118=DIRECTION('',(-0.53375669266993,-0.845638098142496,0.0));
#119=AXIS2_PLACEMENT_3D('',#116,#117,#118);
#120=CIRCLE('',#119,0.25);
#121=EDGE_CURVE('',#113,#115,#120,.T.);
#122=ORIENTED_EDGE('',*,*,#121,.T.);
#123=CARTESIAN_POINT('',(-54.978076199333884,-10.431477973299222,-104.09999999999999));
#124=VERTEX_POINT('',#123);
#125=CARTESIAN_POINT('',(-53.626630115885476,-11.284494640130619,-104.09999999999999));
#126=DIRECTION('',(-0.845638098142496,0.533756692669931,0.0));
#127=VECTOR('',#126,1.598137650629691);
#128=LINE('',#125,#127);
#129=EDGE_CURVE('',#115,#124,#128,.T.);
#130=ORIENTED_EDGE('',*,*,#129,.T.);
#131=CARTESIAN_POINT('',(-55.158105088299223,-10.397267062239852,-104.09999999999999));
#132=VERTEX_POINT('',#131);
#133=CARTESIAN_POINT('',(-55.111515372501366,-10.642887497834847,-104.09999999999999));
#134=DIRECTION('',(0.0,0.0,1.0));
#135=DIRECTION('',(-0.533756692669938,-0.845638098142491,0.0));
#136=AXIS2_PLACEMENT_3D('',#133,#134,#135);
#137=CIRCLE('',#136,0.25);
#138=EDGE_CURVE('',#124,#132,#137,.T.);
#139=ORIENTED_EDGE('',*,*,#138,.T.);
#140=CARTESIAN_POINT('',(-55.284222803151366,-10.421189291991634,-104.09999999999999));
#141=VERTEX_POINT('',#140);
#142=CARTESIAN_POINT('',(-55.158105088299223,-10.397267062239852,-104.09999999999999));
#143=DIRECTION('',(-0.982481742379979,-0.186358863191425,0.0));
#144=VECTOR('',#143,0.128366471774461);
#145=LINE('',#142,#144);
#146=EDGE_CURVE('',#132,#141,#145,.T.);
#147=ORIENTED_EDGE('',*,*,#146,.T.);
#148=CARTESIAN_POINT('',(-55.565391868538406,-10.262012645915133,-104.09999999999999));
#149=VERTEX_POINT('',#148);
#150=CARTESIAN_POINT('',(-55.330812518949216,-10.175568856396644,-104.09999999999999));
#151=DIRECTION('',(0.0,0.0,-1.0));
#152=DIRECTION('',(-0.938317398356727,-0.345775158073946,0.0));
#153=AXIS2_PLACEMENT_3D('',#150,#151,#152);
#154=CIRCLE('',#153,0.25);
#155=EDGE_CURVE('',#141,#149,#154,.T.);
#156=ORIENTED_EDGE('',*,*,#155,.T.);
#157=CARTESIAN_POINT('',(-60.164188055758956,10.077627336943744,-104.09999999999999));
#158=VERTEX_POINT('',#157);
#159=CARTESIAN_POINT('',(19.499999999999993,17.399999999999999,-104.09999999999999));
#160=DIRECTION('',(0.0,0.0,-1.0));
#161=DIRECTION('',(-0.995802350696987,-0.091529658288203,0.0));
#162=AXIS2_PLACEMENT_3D('',#159,#160,#161);
#163=CIRCLE('',#162,80.0);
#164=EDGE_CURVE('',#149,#158,#163,.T.);
#165=ORIENTED_EDGE('',*,*,#164,.T.);
#166=CARTESIAN_POINT('',(-59.978847309143063,10.342281933787721,-104.09999999999999));
#167=VERTEX_POINT('',#166);
#168=CARTESIAN_POINT('',(-59.915237468084698,10.100509751515796,-104.09999999999999));
#169=DIRECTION('',(0.0,0.0,-1.0));
#170=DIRECTION('',(-0.254439364233436,0.967088729087712,0.0));
#171=AXIS2_PLACEMENT_3D('',#168,#169,#170);
#172=CIRCLE('',#171,0.25);
#173=EDGE_CURVE('',#158,#167,#172,.T.);
#174=ORIENTED_EDGE('',*,*,#173,.T.);
#175=CARTESIAN_POINT('',(-59.854705541097189,10.37494341725491,-104.09999999999999));
#176=VERTEX_POINT('',#175);
#177=CARTESIAN_POINT('',(-59.978847309143056,10.342281933787723,-104.09999999999999));
#178=DIRECTION('',(0.967088729087715,0.254439364233422,0.0));
#179=VECTOR('',#178,0.128366471774491);
#180=LINE('',#177,#179);
#181=EDGE_CURVE('',#167,#176,#180,.T.);
#182=ORIENTED_EDGE('',*,*,#181,.T.);
#183=CARTESIAN_POINT('',(-59.70690585761993,10.483276426359359,-104.09999999999999));
#184=VERTEX_POINT('',#183);
#185=CARTESIAN_POINT('',(-59.918315382155555,10.61671559952684,-104.09999999999999));
#186=DIRECTION('',(0.0,0.0,1.0));
#187=DIRECTION('',(-0.254439364233433,0.967088729087712,0.0));
#188=AXIS2_PLACEMENT_3D('',#185,#186,#187);
#189=CIRCLE('',#188,0.25);
#190=EDGE_CURVE('',#176,#184,#189,.T.);
#191=ORIENTED_EDGE('',*,*,#190,.T.);
#192=CARTESIAN_POINT('',(-58.853889190788529,11.834722509807774,-104.09999999999999));
#193=VERTEX_POINT('',#192);
#194=CARTESIAN_POINT('',(-59.70690585761993,10.483276426359359,-104.09999999999999));
#195=DIRECTION('',(0.53375669266993,0.845638098142496,0.0));
#196=VECTOR('',#195,1.598137650629699);
#197=LINE('',#194,#196);
#198=EDGE_CURVE('',#184,#193,#197,.T.);
#199=ORIENTED_EDGE('',*,*,#198,.T.);
#200=CARTESIAN_POINT('',(-58.393141824305708,11.719466861411705,-104.09999999999999));
#201=VERTEX_POINT('',#200);
#202=CARTESIAN_POINT('',(-58.64247966625291,11.701283336640294,-104.09999999999999));
#203=DIRECTION('',(0.0,0.0,-1.0));
#204=DIRECTION('',(0.997351367788805,0.072734099085637,0.0));
#205=AXIS2_PLACEMENT_3D('',#202,#203,#204);
#206=CIRCLE('',#205,0.25);
#207=EDGE_CURVE('',#193,#201,#206,.T.);
#208=ORIENTED_EDGE('',*,*,#207,.T.);
#209=CARTESIAN_POINT('',(19.499999999999993,17.399999999999999,-104.09999999999999));
#210=DIRECTION('',(0.0,0.0,1.0));
#211=DIRECTION('',(0.997351367788805,0.072734099085638,0.0));
#212=AXIS2_PLACEMENT_3D('',#209,#210,#211);
#213=CIRCLE('',#212,78.100000000000009);
#214=EDGE_CURVE('',#201,#113,#213,.T.);
#215=ORIENTED_EDGE('',*,*,#214,.T.);
#216=EDGE_LOOP('',(#122,#130,#139,#147,#156,#165,#174,#182,#191,#199,#208,#215));
#217=FACE_OUTER_BOUND('',#216,.T.);
#218=ADVANCED_FACE('',(#217),#111,.F.);
#219=CARTESIAN_POINT('',(-54.978076199333884,-10.431477973299222,0.0));
#220=DIRECTION('',(-0.533756692669931,-0.845638098142496,0.0));
#221=DIRECTION('',(0.845638098142496,-0.533756692669931,0.0));
#222=AXIS2_PLACEMENT_3D('',#219,#220,#221);
#223=PLANE('',#222);
#224=CARTESIAN_POINT('',(-53.626630115885476,-11.284494640130617,104.09999999999999));
#225=VERTEX_POINT('',#224);
#226=CARTESIAN_POINT('',(-53.626630115885476,-11.284494640130617,104.09999999999999));
#227=DIRECTION('',(0.0,0.0,-1.0));
#228=VECTOR('',#227,208.19999999999999);
#229=LINE('',#226,#228);
#230=EDGE_CURVE('',#225,#115,#229,.T.);
#231=ORIENTED_EDGE('',*,*,#230,.F.);
#232=CARTESIAN_POINT('',(-54.978076199333884,-10.431477973299222,104.09999999999999));
#233=VERTEX_POINT('',#232);
#234=CARTESIAN_POINT('',(-54.978076199333884,-10.431477973299222,104.09999999999999));
#235=DIRECTION('',(0.845638098142496,-0.533756692669931,0.0));
#236=VECTOR('',#235,1.598137650629691);
#237=LINE('',#234,#236);
#238=EDGE_CURVE('',#233,#225,#237,.T.);
#239=ORIENTED_EDGE('',*,*,#238,.F.);
#240=CARTESIAN_POINT('',(-54.978076199333884,-10.431477973299222,-104.09999999999999));
#241=DIRECTION('',(0.0,0.0,1.0));
#242=VECTOR('',#241,208.19999999999999);
#243=LINE('',#240,#242);
#244=EDGE_CURVE('',#124,#233,#243,.T.);
#245=ORIENTED_EDGE('',*,*,#244,.F.);
#246=ORIENTED_EDGE('',*,*,#129,.F.);
#247=EDGE_LOOP('',(#231,#239,#245,#246));
#248=FACE_OUTER_BOUND('',#247,.T.);
#249=ADVANCED_FACE('',(#248),#223,.T.);
#250=CARTESIAN_POINT('',(-55.111515372501366,-10.642887497834847,0.0));
#251=DIRECTION('',(0.0,0.0,1.0));
#252=DIRECTION('',(-0.533756692669938,-0.845638098142491,0.0));
#253=AXIS2_PLACEMENT_3D('',#250,#251,#252);
#254=CYLINDRICAL_SURFACE('',#253,0.25);
#255=ORIENTED_EDGE('',*,*,#244,.T.);
#256=CARTESIAN_POINT('',(-55.158105088299223,-10.397267062239852,104.09999999999999));
#257=VERTEX_POINT('',#256);
#258=CARTESIAN_POINT('',(-55.111515372501366,-10.642887497834847,104.09999999999999));
#259=DIRECTION('',(0.0,0.0,-1.0));
#260=DIRECTION('',(-0.533756692669938,-0.845638098142491,0.0));
#261=AXIS2_PLACEMENT_3D('',#258,#259,#260);
#262=CIRCLE('',#261,0.25);
#263=EDGE_CURVE('',#257,#233,#262,.T.);
#264=ORIENTED_EDGE('',*,*,#263,.F.);
#265=CARTESIAN_POINT('',(-55.158105088299223,-10.397267062239852,-104.09999999999999));
#266=DIRECTION('',(0.0,0.0,1.0));
#267=VECTOR('',#266,208.19999999999999);
#268=LINE('',#265,#267);
#269=EDGE_CURVE('',#132,#257,#268,.T.);
#270=ORIENTED_EDGE('',*,*,#269,.F.);
#271=ORIENTED_EDGE('',*,*,#138,.F.);
#272=EDGE_LOOP('',(#255,#264,#270,#271));
#273=FACE_OUTER_BOUND('',#272,.T.);
#274=ADVANCED_FACE('',(#273),#254,.F.);
#275=CARTESIAN_POINT('',(-55.284222803151366,-10.421189291991634,0.0));
#276=DIRECTION('',(0.186358863191428,-0.982481742379979,0.0));
#277=DIRECTION('',(0.982481742379979,0.186358863191428,0.0));
#278=AXIS2_PLACEMENT_3D('',#275,#276,#277);
#279=PLANE('',#278);
#280=ORIENTED_EDGE('',*,*,#269,.T.);
#281=CARTESIAN_POINT('',(-55.284222803151366,-10.421189291991634,104.09999999999999));
#282=VERTEX_POINT('',#281);
#283=CARTESIAN_POINT('',(-55.284222803151366,-10.421189291991634,104.09999999999999));
#284=DIRECTION('',(0.982481742379979,0.186358863191425,0.0));
#285=VECTOR('',#284,0.128366471774461);
#286=LINE('',#283,#285);
#287=EDGE_CURVE('',#282,#257,#286,.T.);
#288=ORIENTED_EDGE('',*,*,#287,.F.);
#289=CARTESIAN_POINT('',(-55.284222803151366,-10.421189291991634,-104.09999999999999));
#290=DIRECTION('',(0.0,0.0,1.0));
#291=VECTOR('',#290,208.19999999999999);
#292=LINE('',#289,#291);
#293=EDGE_CURVE('',#141,#282,#292,.T.);
#294=ORIENTED_EDGE('',*,*,#293,.F.);
#295=ORIENTED_EDGE('',*,*,#146,.F.);
#296=EDGE_LOOP('',(#280,#288,#294,#295));
#297=FACE_OUTER_BOUND('',#296,.T.);
#298=ADVANCED_FACE('',(#297),#279,.T.);
#299=CARTESIAN_POINT('',(-55.330812518949216,-10.175568856396644,0.0));
#300=DIRECTION('',(0.0,0.0,1.0));
#301=DIRECTION('',(-0.938317398356727,-0.345775158073946,0.0));
#302=AXIS2_PLACEMENT_3D('',#299,#300,#301);
#303=CYLINDRICAL_SURFACE('',#302,0.25);
#304=ORIENTED_EDGE('',*,*,#293,.T.);
#305=CARTESIAN_POINT('',(-55.565391868538406,-10.262012645915133,104.09999999999999));
#306=VERTEX_POINT('',#305);
#307=CARTESIAN_POINT('',(-55.330812518949216,-10.175568856396644,104.09999999999999));
#308=DIRECTION('',(0.0,0.0,1.0));
#309=DIRECTION('',(-0.938317398356727,-0.345775158073946,0.0));
#310=AXIS2_PLACEMENT_3D('',#307,#308,#309);
#311=CIRCLE('',#310,0.25);
#312=EDGE_CURVE('',#306,#282,#311,.T.);
#313=ORIENTED_EDGE('',*,*,#312,.F.);
#314=CARTESIAN_POINT('',(-55.565391868538406,-10.262012645915133,-104.09999999999999));
#315=DIRECTION('',(0.0,0.0,1.0));
#316=VECTOR('',#315,208.19999999999999);
#317=LINE('',#314,#316);
#318=EDGE_CURVE('',#149,#306,#317,.T.);
#319=ORIENTED_EDGE('',*,*,#318,.F.);
#320=ORIENTED_EDGE('',*,*,#155,.F.);
#321=EDGE_LOOP('',(#304,#313,#319,#320));
#322=FACE_OUTER_BOUND('',#321,.T.);
#323=ADVANCED_FACE('',(#322),#303,.T.);
#324=CARTESIAN_POINT('',(19.499999999999993,17.399999999999999,0.0));
#325=DIRECTION('',(0.0,0.0,1.0));
#326=DIRECTION('',(-0.995802350696987,-0.091529658288203,0.0));
#327=AXIS2_PLACEMENT_3D('',#324,#325,#326);
#328=CYLINDRICAL_SURFACE('',#327,80.000000000000014);
#329=ORIENTED_EDGE('',*,*,#318,.T.);
#330=CARTESIAN_POINT('',(-60.164188055758956,10.077627336943744,104.09999999999999));
#331=VERTEX_POINT('',#330);
#332=CARTESIAN_POINT('',(19.499999999999993,17.399999999999999,104.09999999999999));
#333=DIRECTION('',(0.0,0.0,1.0));
#334=DIRECTION('',(-0.995802350696987,-0.091529658288203,0.0));
#335=AXIS2_PLACEMENT_3D('',#332,#333,#334);
#336=CIRCLE('',#335,80.0);
#337=EDGE_CURVE('',#331,#306,#336,.T.);
#338=ORIENTED_EDGE('',*,*,#337,.F.);
#339=CARTESIAN_POINT('',(-60.164188055758956,10.077627336943744,-104.09999999999999));
#340=DIRECTION('',(0.0,0.0,1.0));
#341=VECTOR('',#340,208.19999999999999);
#342=LINE('',#339,#341);
#343=EDGE_CURVE('',#158,#331,#342,.T.);
#344=ORIENTED_EDGE('',*,*,#343,.F.);
#345=ORIENTED_EDGE('',*,*,#164,.F.);
#346=EDGE_LOOP('',(#329,#338,#344,#345));
#347=FACE_OUTER_BOUND('',#346,.T.);
#348=ADVANCED_FACE('',(#347),#328,.T.);
#349=CARTESIAN_POINT('',(-59.915237468084698,10.100509751515796,0.0));
#350=DIRECTION('',(0.0,0.0,1.0));
#351=DIRECTION('',(-0.254439364233436,0.967088729087712,0.0));
#352=AXIS2_PLACEMENT_3D('',#349,#350,#351);
#353=CYLINDRICAL_SURFACE('',#352,0.25);
#354=ORIENTED_EDGE('',*,*,#343,.T.);
#355=CARTESIAN_POINT('',(-59.978847309143063,10.342281933787721,104.09999999999999));
#356=VERTEX_POINT('',#355);
#357=CARTESIAN_POINT('',(-59.915237468084698,10.100509751515796,104.09999999999999));
#358=DIRECTION('',(0.0,0.0,1.0));
#359=DIRECTION('',(-0.254439364233436,0.967088729087712,0.0));
#360=AXIS2_PLACEMENT_3D('',#357,#358,#359);
#361=CIRCLE('',#360,0.25);
#362=EDGE_CURVE('',#356,#331,#361,.T.);
#363=ORIENTED_EDGE('',*,*,#362,.F.);
#364=CARTESIAN_POINT('',(-59.978847309143063,10.342281933787723,-104.09999999999999));
#365=DIRECTION('',(0.0,0.0,1.0));
#366=VECTOR('',#365,208.19999999999999);
#367=LINE('',#364,#366);
#368=EDGE_CURVE('',#167,#356,#367,.T.);
#369=ORIENTED_EDGE('',*,*,#368,.F.);
#370=ORIENTED_EDGE('',*,*,#173,.F.);
#371=EDGE_LOOP('',(#354,#363,#369,#370));
#372=FACE_OUTER_BOUND('',#371,.T.);
#373=ADVANCED_FACE('',(#372),#353,.T.);
#374=CARTESIAN_POINT('',(-59.854705541097189,10.374943417254912,0.0));
#375=DIRECTION('',(-0.254439364233422,0.967088729087715,0.0));
#376=DIRECTION('',(-0.967088729087715,-0.254439364233422,0.0));
#377=AXIS2_PLACEMENT_3D('',#374,#375,#376);
#378=PLANE('',#377);
#379=ORIENTED_EDGE('',*,*,#368,.T.);
#380=CARTESIAN_POINT('',(-59.854705541097189,10.37494341725491,104.09999999999999));
#381=VERTEX_POINT('',#380);
#382=CARTESIAN_POINT('',(-59.854705541097189,10.374943417254912,104.09999999999999));
#383=DIRECTION('',(-0.967088729087715,-0.254439364233422,0.0));
#384=VECTOR('',#383,0.128366471774491);
#385=LINE('',#382,#384);
#386=EDGE_CURVE('',#381,#356,#385,.T.);
#387=ORIENTED_EDGE('',*,*,#386,.F.);
#388=CARTESIAN_POINT('',(-59.854705541097189,10.374943417254912,-104.09999999999999));
#389=DIRECTION('',(0.0,0.0,1.0));
#390=VECTOR('',#389,208.19999999999999);
#391=LINE('',#388,#390);
#392=EDGE_CURVE('',#176,#381,#391,.T.);
#393=ORIENTED_EDGE('',*,*,#392,.F.);
#394=ORIENTED_EDGE('',*,*,#181,.F.);
#395=EDGE_LOOP('',(#379,#387,#393,#394));
#396=FACE_OUTER_BOUND('',#395,.T.);
#397=ADVANCED_FACE('',(#396),#378,.T.);
#398=CARTESIAN_POINT('',(-59.918315382155555,10.61671559952684,0.0));
#399=DIRECTION('',(0.0,0.0,1.0));
#400=DIRECTION('',(-0.254439364233433,0.967088729087712,0.0));
#401=AXIS2_PLACEMENT_3D('',#398,#399,#400);
#402=CYLINDRICAL_SURFACE('',#401,0.25);
#403=ORIENTED_EDGE('',*,*,#392,.T.);
#404=CARTESIAN_POINT('',(-59.70690585761993,10.483276426359359,104.09999999999999));
#405=VERTEX_POINT('',#404);
#406=CARTESIAN_POINT('',(-59.918315382155555,10.61671559952684,104.09999999999999));
#407=DIRECTION('',(0.0,0.0,-1.0));
#408=DIRECTION('',(-0.254439364233433,0.967088729087712,0.0));
#409=AXIS2_PLACEMENT_3D('',#406,#407,#408);
#410=CIRCLE('',#409,0.25);
#411=EDGE_CURVE('',#405,#381,#410,.T.);
#412=ORIENTED_EDGE('',*,*,#411,.F.);
#413=CARTESIAN_POINT('',(-59.70690585761993,10.483276426359359,-104.09999999999999));
#414=DIRECTION('',(0.0,0.0,1.0));
#415=VECTOR('',#414,208.19999999999999);
#416=LINE('',#413,#415);
#417=EDGE_CURVE('',#184,#405,#416,.T.);
#418=ORIENTED_EDGE('',*,*,#417,.F.);
#419=ORIENTED_EDGE('',*,*,#190,.F.);
#420=EDGE_LOOP('',(#403,#412,#418,#419));
#421=FACE_OUTER_BOUND('',#420,.T.);
#422=ADVANCED_FACE('',(#421),#402,.F.);
#423=CARTESIAN_POINT('',(-58.853889190788529,11.834722509807774,0.0));
#424=DIRECTION('',(-0.845638098142496,0.53375669266993,0.0));
#425=DIRECTION('',(-0.533756692669931,-0.845638098142496,0.0));
#426=AXIS2_PLACEMENT_3D('',#423,#424,#425);
#427=PLANE('',#426);
#428=ORIENTED_EDGE('',*,*,#417,.T.);
#429=CARTESIAN_POINT('',(-58.853889190788529,11.834722509807774,104.09999999999999));
#430=VERTEX_POINT('',#429);
#431=CARTESIAN_POINT('',(-58.853889190788529,11.834722509807774,104.09999999999999));
#432=DIRECTION('',(-0.53375669266993,-0.845638098142496,0.0));
#433=VECTOR('',#432,1.598137650629699);
#434=LINE('',#431,#433);
#435=EDGE_CURVE('',#430,#405,#434,.T.);
#436=ORIENTED_EDGE('',*,*,#435,.F.);
#437=CARTESIAN_POINT('',(-58.853889190788529,11.834722509807774,-104.09999999999999));
#438=DIRECTION('',(0.0,0.0,1.0));
#439=VECTOR('',#438,208.19999999999999);
#440=LINE('',#437,#439);
#441=EDGE_CURVE('',#193,#430,#440,.T.);
#442=ORIENTED_EDGE('',*,*,#441,.F.);
#443=ORIENTED_EDGE('',*,*,#198,.F.);
#444=EDGE_LOOP('',(#428,#436,#442,#443));
#445=FACE_OUTER_BOUND('',#444,.T.);
#446=ADVANCED_FACE('',(#445),#427,.T.);
#447=CARTESIAN_POINT('',(-58.64247966625291,11.701283336640294,0.0));
#448=DIRECTION('',(0.0,0.0,1.0));
#449=DIRECTION('',(0.997351367788805,0.072734099085637,0.0));
#450=AXIS2_PLACEMENT_3D('',#447,#448,#449);
#451=CYLINDRICAL_SURFACE('',#450,0.25);
#452=ORIENTED_EDGE('',*,*,#441,.T.);
#453=CARTESIAN_POINT('',(-58.393141824305708,11.719466861411705,104.09999999999999));
#454=VERTEX_POINT('',#453);
#455=CARTESIAN_POINT('',(-58.64247966625291,11.701283336640294,104.09999999999999));
#456=DIRECTION('',(0.0,0.0,1.0));
#457=DIRECTION('',(0.997351367788805,0.072734099085637,0.0));
#458=AXIS2_PLACEMENT_3D('',#455,#456,#457);
#459=CIRCLE('',#458,0.25);
#460=EDGE_CURVE('',#454,#430,#459,.T.);
#461=ORIENTED_EDGE('',*,*,#460,.F.);
#462=CARTESIAN_POINT('',(-58.393141824305708,11.719466861411703,-104.09999999999999));
#463=DIRECTION('',(0.0,0.0,1.0));
#464=VECTOR('',#463,208.19999999999999);
#465=LINE('',#462,#464);
#466=EDGE_CURVE('',#201,#454,#465,.T.);
#467=ORIENTED_EDGE('',*,*,#466,.F.);
#468=ORIENTED_EDGE('',*,*,#207,.F.);
#469=EDGE_LOOP('',(#452,#461,#467,#468));
#470=FACE_OUTER_BOUND('',#469,.T.);
#471=ADVANCED_FACE('',(#470),#451,.T.);
#472=CARTESIAN_POINT('',(19.499999999999993,17.399999999999999,0.0));
#473=DIRECTION('',(0.0,0.0,1.0));
#474=DIRECTION('',(0.997351367788805,0.072734099085638,0.0));
#475=AXIS2_PLACEMENT_3D('',#472,#473,#474);
#476=CYLINDRICAL_SURFACE('',#475,78.100000000000009);
#477=ORIENTED_EDGE('',*,*,#466,.T.);
#478=CARTESIAN_POINT('',(-53.260283505121571,-10.982232897612871,104.09999999999999));
#479=VERTEX_POINT('',#478);
#480=CARTESIAN_POINT('',(19.499999999999993,17.399999999999999,104.09999999999999));
#481=DIRECTION('',(0.0,0.0,-1.0));
#482=DIRECTION('',(0.997351367788805,0.072734099085638,0.0));
#483=AXIS2_PLACEMENT_3D('',#480,#481,#482);
#484=CIRCLE('',#483,78.100000000000009);
#485=EDGE_CURVE('',#479,#454,#484,.T.);
#486=ORIENTED_EDGE('',*,*,#485,.F.);
#487=CARTESIAN_POINT('',(-53.260283505121571,-10.982232897612871,-104.09999999999999));
#488=DIRECTION('',(0.0,0.0,1.0));
#489=VECTOR('',#488,208.19999999999999);
#490=LINE('',#487,#489);
#491=EDGE_CURVE('',#113,#479,#490,.T.);
#492=ORIENTED_EDGE('',*,*,#491,.F.);
#493=ORIENTED_EDGE('',*,*,#214,.F.);
#494=EDGE_LOOP('',(#477,#486,#492,#493));
#495=FACE_OUTER_BOUND('',#494,.T.);
#496=ADVANCED_FACE('',(#495),#476,.F.);
#497=CARTESIAN_POINT('',(-53.493190942717987,-11.073085115594987,0.0));
#498=DIRECTION('',(0.0,0.0,1.0));
#499=DIRECTION('',(-0.53375669266993,-0.845638098142496,0.0));
#500=AXIS2_PLACEMENT_3D('',#497,#498,#499);
#501=CYLINDRICAL_SURFACE('',#500,0.25);
#502=ORIENTED_EDGE('',*,*,#491,.T.);
#503=CARTESIAN_POINT('',(-53.493190942717987,-11.073085115594987,104.09999999999999));
#504=DIRECTION('',(0.0,0.0,1.0));
#505=DIRECTION('',(-0.53375669266993,-0.845638098142496,0.0));
#506=AXIS2_PLACEMENT_3D('',#503,#504,#505);
#507=CIRCLE('',#506,0.25);
#508=EDGE_CURVE('',#225,#479,#507,.T.);
#509=ORIENTED_EDGE('',*,*,#508,.F.);
#510=ORIENTED_EDGE('',*,*,#230,.T.);
#511=ORIENTED_EDGE('',*,*,#121,.F.);
#512=EDGE_LOOP('',(#502,#509,#510,#511));
#513=FACE_OUTER_BOUND('',#512,.T.);
#514=ADVANCED_FACE('',(#513),#501,.T.);
#515=CARTESIAN_POINT('',(-57.23288817746333,0.050680450134124,104.09999999999999));
#516=DIRECTION('',(0.0,0.0,1.0));
#517=DIRECTION('',(1.0,0.0,0.0));
#518=AXIS2_PLACEMENT_3D('',#515,#516,#517);
#519=PLANE('',#518);
#520=ORIENTED_EDGE('',*,*,#508,.T.);
#521=ORIENTED_EDGE('',*,*,#485,.T.);
#522=ORIENTED_EDGE('',*,*,#460,.T.);
#523=ORIENTED_EDGE('',*,*,#435,.T.);
#524=ORIENTED_EDGE('',*,*,#411,.T.);
#525=ORIENTED_EDGE('',*,*,#386,.T.);
#526=ORIENTED_EDGE('',*,*,#362,.T.);
#527=ORIENTED_EDGE('',*,*,#337,.T.);
#528=ORIENTED_EDGE('',*,*,#312,.T.);
#529=ORIENTED_EDGE('',*,*,#287,.T.);
#530=ORIENTED_EDGE('',*,*,#263,.T.);
#531=ORIENTED_EDGE('',*,*,#238,.T.);
#532=EDGE_LOOP('',(#520,#521,#522,#523,#524,#525,#526,#527,#528,#529,#530,#531));
#533=FACE_OUTER_BOUND('',#532,.T.);
#534=ADVANCED_FACE('',(#533),#519,.T.);
#535=CLOSED_SHELL('',(#218,#249,#274,#298,#323,#348,#373,#397,#422,#446,#471,#496,#514,#534));
#536=MANIFOLD_SOLID_BREP('Volumenk\S\vrper1',#535);
#537=COLOUR_RGB('Dunkelgr\X2\FFFD\X0\n',0.050000000745058,0.616999983787537,0.050000000745058);
#538=FILL_AREA_STYLE_COLOUR('Dunkelgr\X2\FFFD\X0\n',#537);
#539=FILL_AREA_STYLE('Dunkelgr\X2\FFFD\X0\n',(#538));
#540=SURFACE_STYLE_FILL_AREA(#539);
#541=SURFACE_SIDE_STYLE('Dunkelgr\X2\FFFD\X0\n',(#540));
#542=SURFACE_STYLE_USAGE(.BOTH.,#541);
#543=PRESENTATION_STYLE_ASSIGNMENT((#542));
#544=STYLED_ITEM('',(#543),#536);
#545=MECHANICAL_DESIGN_GEOMETRIC_PRESENTATION_REPRESENTATION('',(#544),#36);
#546=ADVANCED_BREP_SHAPE_REPRESENTATION('ABSR',(#536),#75);
#547=SHAPE_REPRESENTATION_RELATIONSHIP('SRR','None',#546,#80);
#548=AXIS2_PLACEMENT_3D('',#549,#550,#551);
#549=CARTESIAN_POINT('',(60.499978086329733,-33.024975441545408,-9.860761E-031));
#550=DIRECTION('',(2.480937E-031,1.153125E-031,1.0));
#551=DIRECTION('',(0.999999999999209,-0.000001259407224,-2.362103E-032));
#552=NEXT_ASSEMBLY_USAGE_OCCURRENCE('95011120_IT 000020 DS-dunkelgrau:1','95011120_IT 000020 DS-dunkelgrau:1','95011120_IT 000020 DS-dunkelgrau:1',#12,#51,'95011120_IT 000020 DS-dunkelgrau:1');
#553=PRODUCT_DEFINITION_SHAPE('95011120_IT 000020 DS-dunkelgrau:1','95011120_IT 000020 DS-dunkelgrau:1',#552);
#554=ITEM_DEFINED_TRANSFORMATION('95011120_IT 000020 DS-dunkelgrau:1','95011120_IT 000020 DS-dunkelgrau:1',#76,#548);
#558=(REPRESENTATION_RELATIONSHIP('95011120_IT 000020 DS-dunkelgrau:1','95011120_IT 000020 DS-dunkelgrau:1',#80,#41)REPRESENTATION_RELATIONSHIP_WITH_TRANSFORMATION(#554)SHAPE_REPRESENTATION_RELATIONSHIP());
#559=CONTEXT_DEPENDENT_SHAPE_REPRESENTATION(#558,#553);
#560=AXIS2_PLACEMENT_3D('',#561,#562,#563);
#561=CARTESIAN_POINT('',(54.91107547863357,8.306812631452523,1.396755E-016));
#562=DIRECTION('',(-5.122871E-017,8.755160E-018,1.0));
#563=DIRECTION('',(0.902725418924135,-0.430217175422179,5.001208E-017));
#564=NEXT_ASSEMBLY_USAGE_OCCURRENCE('95011120_IT 000020 DS-dunkelgrau:2','95011120_IT 000020 DS-dunkelgrau:2','95011120_IT 000020 DS-dunkelgrau:2',#12,#51,'95011120_IT 000020 DS-dunkelgrau:2');
#565=PRODUCT_DEFINITION_SHAPE('95011120_IT 000020 DS-dunkelgrau:2','95011120_IT 000020 DS-dunkelgrau:2',#564);
#566=ITEM_DEFINED_TRANSFORMATION('95011120_IT 000020 DS-dunkelgrau:2','95011120_IT 000020 DS-dunkelgrau:2',#76,#560);
#570=(REPRESENTATION_RELATIONSHIP('95011120_IT 000020 DS-dunkelgrau:2','95011120_IT 000020 DS-dunkelgrau:2',#80,#41)REPRESENTATION_RELATIONSHIP_WITH_TRANSFORMATION(#566)SHAPE_REPRESENTATION_RELATIONSHIP());
#571=CONTEXT_DEPENDENT_SHAPE_REPRESENTATION(#570,#565);
#572=AXIS2_PLACEMENT_3D('',#573,#574,#575);
#573=CARTESIAN_POINT('',(190.37281516475915,33.025207140727737,1.189430E-014));
#574=DIRECTION('',(-2.034506E-016,-1.726007E-017,1.0));
#575=DIRECTION('',(-0.999999999943577,-0.000010622651787,-2.034508E-016));
#576=NEXT_ASSEMBLY_USAGE_OCCURRENCE('95011120_IT 000020 DS-dunkelgrau:3','95011120_IT 000020 DS-dunkelgrau:3','95011120_IT 000020 DS-dunkelgrau:3',#12,#51,'95011120_IT 000020 DS-dunkelgrau:3');
#577=PRODUCT_DEFINITION_SHAPE('95011120_IT 000020 DS-dunkelgrau:3','95011120_IT 000020 DS-dunkelgrau:3',#576);
#578=ITEM_DEFINED_TRANSFORMATION('95011120_IT 000020 DS-dunkelgrau:3','95011120_IT 000020 DS-dunkelgrau:3',#76,#572);
#582=(REPRESENTATION_RELATIONSHIP('95011120_IT 000020 DS-dunkelgrau:3','95011120_IT 000020 DS-dunkelgrau:3',#80,#41)REPRESENTATION_RELATIONSHIP_WITH_TRANSFORMATION(#578)SHAPE_REPRESENTATION_RELATIONSHIP());
#583=CONTEXT_DEPENDENT_SHAPE_REPRESENTATION(#582,#577);
#584=AXIS2_PLACEMENT_3D('',#585,#586,#587);
#585=CARTESIAN_POINT('',(195.96188414025738,-8.306674194410189,7.872432E-015));
#586=DIRECTION('',(-4.971066E-016,2.644769E-016,1.0));
#587=DIRECTION('',(-0.902727792788214,0.430212194303838,-5.625331E-016));
#588=NEXT_ASSEMBLY_USAGE_OCCURRENCE('95011120_IT 000020 DS-dunkelgrau:4','95011120_IT 000020 DS-dunkelgrau:4','95011120_IT 000020 DS-dunkelgrau:4',#12,#51,'95011120_IT 000020 DS-dunkelgrau:4');
#589=PRODUCT_DEFINITION_SHAPE('95011120_IT 000020 DS-dunkelgrau:4','95011120_IT 000020 DS-dunkelgrau:4',#588);
#590=ITEM_DEFINED_TRANSFORMATION('95011120_IT 000020 DS-dunkelgrau:4','95011120_IT 000020 DS-dunkelgrau:4',#76,#584);
#594=(REPRESENTATION_RELATIONSHIP('95011120_IT 000020 DS-dunkelgrau:4','95011120_IT 000020 DS-dunkelgrau:4',#80,#41)REPRESENTATION_RELATIONSHIP_WITH_TRANSFORMATION(#590)SHAPE_REPRESENTATION_RELATIONSHIP());
#595=CONTEXT_DEPENDENT_SHAPE_REPRESENTATION(#594,#589);
ENDSEC;
END-ISO-10303-21;
