ISO-10303-21;
HEADER;
/* Generated by software containing ST-Developer
 * from STEP Tools, Inc. (www.steptools.com) 
 */

FILE_DESCRIPTION(
/* description */ (''),
/* implementation_level */ '2;1');

FILE_NAME(
/* name */ 
'F:\\User\\Daten\\DWG\\Anw\\FW\\Zwischenspeicher\\95204044_IT 204400 F
P.stp',
/* time_stamp */ '2016-09-28T14:30:12+02:00',
/* author */ ('Watermann'),
/* organization */ ('Fa. Bopla'),
/* preprocessor_version */ 'ST-DEVELOPER v16.1',
/* originating_system */ 'Autodesk Inventor 2016',
/* authorisation */ '');

FILE_SCHEMA (('AUTOMOTIVE_DESIGN { 1 0 10303 214 3 1 1 }'));
ENDSEC;

DATA;
#10=MECHANICAL_DESIGN_GEOMETRIC_PRESENTATION_REPRESENTATION('',(#13),#171);
#11=SHAPE_REPRESENTATION_RELATIONSHIP('SRR','None',#180,#12);
#12=ADVANCED_BREP_SHAPE_REPRESENTATION('',(#14),#170);
#13=STYLED_ITEM('',(#189),#14);
#14=MANIFOLD_SOLID_BREP('Volumenk\X\F6rper1',#107);
#15=FACE_OUTER_BOUND('',#21,.T.);
#16=FACE_OUTER_BOUND('',#22,.T.);
#17=FACE_OUTER_BOUND('',#23,.T.);
#18=FACE_OUTER_BOUND('',#24,.T.);
#19=FACE_OUTER_BOUND('',#25,.T.);
#20=FACE_OUTER_BOUND('',#26,.T.);
#21=EDGE_LOOP('',(#71,#72,#73,#74));
#22=EDGE_LOOP('',(#75,#76,#77,#78));
#23=EDGE_LOOP('',(#79,#80,#81,#82));
#24=EDGE_LOOP('',(#83,#84,#85,#86));
#25=EDGE_LOOP('',(#87,#88,#89,#90));
#26=EDGE_LOOP('',(#91,#92,#93,#94));
#27=LINE('',#145,#39);
#28=LINE('',#147,#40);
#29=LINE('',#149,#41);
#30=LINE('',#150,#42);
#31=LINE('',#153,#43);
#32=LINE('',#155,#44);
#33=LINE('',#156,#45);
#34=LINE('',#159,#46);
#35=LINE('',#161,#47);
#36=LINE('',#162,#48);
#37=LINE('',#164,#49);
#38=LINE('',#165,#50);
#39=VECTOR('',#119,176.55);
#40=VECTOR('',#120,2.);
#41=VECTOR('',#121,176.55);
#42=VECTOR('',#122,2.);
#43=VECTOR('',#125,413.7);
#44=VECTOR('',#126,2.);
#45=VECTOR('',#127,413.7);
#46=VECTOR('',#130,176.55);
#47=VECTOR('',#131,2.);
#48=VECTOR('',#132,176.55);
#49=VECTOR('',#135,413.7);
#50=VECTOR('',#136,413.7);
#51=VERTEX_POINT('',#143);
#52=VERTEX_POINT('',#144);
#53=VERTEX_POINT('',#146);
#54=VERTEX_POINT('',#148);
#55=VERTEX_POINT('',#152);
#56=VERTEX_POINT('',#154);
#57=VERTEX_POINT('',#158);
#58=VERTEX_POINT('',#160);
#59=EDGE_CURVE('',#51,#52,#27,.T.);
#60=EDGE_CURVE('',#53,#52,#28,.T.);
#61=EDGE_CURVE('',#54,#53,#29,.T.);
#62=EDGE_CURVE('',#54,#51,#30,.T.);
#63=EDGE_CURVE('',#52,#55,#31,.T.);
#64=EDGE_CURVE('',#56,#55,#32,.T.);
#65=EDGE_CURVE('',#53,#56,#33,.T.);
#66=EDGE_CURVE('',#55,#57,#34,.T.);
#67=EDGE_CURVE('',#58,#57,#35,.T.);
#68=EDGE_CURVE('',#56,#58,#36,.T.);
#69=EDGE_CURVE('',#57,#51,#37,.T.);
#70=EDGE_CURVE('',#58,#54,#38,.T.);
#71=ORIENTED_EDGE('',*,*,#59,.T.);
#72=ORIENTED_EDGE('',*,*,#60,.F.);
#73=ORIENTED_EDGE('',*,*,#61,.F.);
#74=ORIENTED_EDGE('',*,*,#62,.T.);
#75=ORIENTED_EDGE('',*,*,#63,.T.);
#76=ORIENTED_EDGE('',*,*,#64,.F.);
#77=ORIENTED_EDGE('',*,*,#65,.F.);
#78=ORIENTED_EDGE('',*,*,#60,.T.);
#79=ORIENTED_EDGE('',*,*,#66,.T.);
#80=ORIENTED_EDGE('',*,*,#67,.F.);
#81=ORIENTED_EDGE('',*,*,#68,.F.);
#82=ORIENTED_EDGE('',*,*,#64,.T.);
#83=ORIENTED_EDGE('',*,*,#69,.T.);
#84=ORIENTED_EDGE('',*,*,#62,.F.);
#85=ORIENTED_EDGE('',*,*,#70,.F.);
#86=ORIENTED_EDGE('',*,*,#67,.T.);
#87=ORIENTED_EDGE('',*,*,#59,.F.);
#88=ORIENTED_EDGE('',*,*,#69,.F.);
#89=ORIENTED_EDGE('',*,*,#66,.F.);
#90=ORIENTED_EDGE('',*,*,#63,.F.);
#91=ORIENTED_EDGE('',*,*,#70,.T.);
#92=ORIENTED_EDGE('',*,*,#61,.T.);
#93=ORIENTED_EDGE('',*,*,#65,.T.);
#94=ORIENTED_EDGE('',*,*,#68,.T.);
#95=PLANE('',#109);
#96=PLANE('',#110);
#97=PLANE('',#111);
#98=PLANE('',#112);
#99=PLANE('',#113);
#100=PLANE('',#114);
#101=ADVANCED_FACE('',(#15),#95,.T.);
#102=ADVANCED_FACE('',(#16),#96,.T.);
#103=ADVANCED_FACE('',(#17),#97,.T.);
#104=ADVANCED_FACE('',(#18),#98,.T.);
#105=ADVANCED_FACE('',(#19),#99,.T.);
#106=ADVANCED_FACE('',(#20),#100,.F.);
#107=CLOSED_SHELL('',(#101,#102,#103,#104,#105,#106));
#108=AXIS2_PLACEMENT_3D('placement',#141,#115,#116);
#109=AXIS2_PLACEMENT_3D('',#142,#117,#118);
#110=AXIS2_PLACEMENT_3D('',#151,#123,#124);
#111=AXIS2_PLACEMENT_3D('',#157,#128,#129);
#112=AXIS2_PLACEMENT_3D('',#163,#133,#134);
#113=AXIS2_PLACEMENT_3D('',#166,#137,#138);
#114=AXIS2_PLACEMENT_3D('',#167,#139,#140);
#115=DIRECTION('axis',(0.,0.,1.));
#116=DIRECTION('refdir',(1.,0.,0.));
#117=DIRECTION('center_axis',(1.,0.,0.));
#118=DIRECTION('ref_axis',(0.,0.,-1.));
#119=DIRECTION('',(0.,-1.,0.));
#120=DIRECTION('',(0.,0.,1.));
#121=DIRECTION('',(0.,-1.,0.));
#122=DIRECTION('',(0.,0.,1.));
#123=DIRECTION('center_axis',(0.,-1.,0.));
#124=DIRECTION('ref_axis',(0.,0.,-1.));
#125=DIRECTION('',(-1.,0.,0.));
#126=DIRECTION('',(0.,0.,1.));
#127=DIRECTION('',(-1.,0.,0.));
#128=DIRECTION('center_axis',(-1.,0.,0.));
#129=DIRECTION('ref_axis',(0.,0.,1.));
#130=DIRECTION('',(0.,1.,0.));
#131=DIRECTION('',(0.,0.,1.));
#132=DIRECTION('',(0.,1.,0.));
#133=DIRECTION('center_axis',(0.,1.,0.));
#134=DIRECTION('ref_axis',(0.,0.,1.));
#135=DIRECTION('',(1.,0.,0.));
#136=DIRECTION('',(1.,0.,0.));
#137=DIRECTION('center_axis',(0.,0.,1.));
#138=DIRECTION('ref_axis',(1.,0.,0.));
#139=DIRECTION('center_axis',(0.,0.,1.));
#140=DIRECTION('ref_axis',(1.,0.,0.));
#141=CARTESIAN_POINT('',(0.,0.,0.));
#142=CARTESIAN_POINT('Origin',(206.85,88.275,0.));
#143=CARTESIAN_POINT('',(206.85,88.275,2.));
#144=CARTESIAN_POINT('',(206.85,-88.275,2.));
#145=CARTESIAN_POINT('',(206.85,88.275,2.));
#146=CARTESIAN_POINT('',(206.85,-88.275,0.));
#147=CARTESIAN_POINT('',(206.85,-88.275,0.));
#148=CARTESIAN_POINT('',(206.85,88.275,0.));
#149=CARTESIAN_POINT('',(206.85,88.275,0.));
#150=CARTESIAN_POINT('',(206.85,88.275,0.));
#151=CARTESIAN_POINT('Origin',(206.85,-88.275,0.));
#152=CARTESIAN_POINT('',(-206.85,-88.275,2.));
#153=CARTESIAN_POINT('',(206.85,-88.275,2.));
#154=CARTESIAN_POINT('',(-206.85,-88.275,0.));
#155=CARTESIAN_POINT('',(-206.85,-88.275,0.));
#156=CARTESIAN_POINT('',(206.85,-88.275,0.));
#157=CARTESIAN_POINT('Origin',(-206.85,-88.275,0.));
#158=CARTESIAN_POINT('',(-206.85,88.275,2.));
#159=CARTESIAN_POINT('',(-206.85,-88.275,2.));
#160=CARTESIAN_POINT('',(-206.85,88.275,0.));
#161=CARTESIAN_POINT('',(-206.85,88.275,0.));
#162=CARTESIAN_POINT('',(-206.85,-88.275,0.));
#163=CARTESIAN_POINT('Origin',(-206.85,88.275,0.));
#164=CARTESIAN_POINT('',(-206.85,88.275,2.));
#165=CARTESIAN_POINT('',(-206.85,88.275,0.));
#166=CARTESIAN_POINT('Origin',(0.,-1.99371791136244E-14,2.));
#167=CARTESIAN_POINT('Origin',(0.,-1.69453608282051E-14,0.));
#168=UNCERTAINTY_MEASURE_WITH_UNIT(LENGTH_MEASURE(0.01),#172,
'DISTANCE_ACCURACY_VALUE',
'Maximum model space distance between geometric entities at asserted c
onnectivities');
#169=UNCERTAINTY_MEASURE_WITH_UNIT(LENGTH_MEASURE(1.E-6),#172,
'DISTANCE_ACCURACY_VALUE',
'Maximum model space distance between geometric entities at asserted c
onnectivities');
#170=(
GEOMETRIC_REPRESENTATION_CONTEXT(3)
GLOBAL_UNCERTAINTY_ASSIGNED_CONTEXT((#168))
GLOBAL_UNIT_ASSIGNED_CONTEXT((#172,#175,#173))
REPRESENTATION_CONTEXT('','3D')
);
#171=(
GEOMETRIC_REPRESENTATION_CONTEXT(3)
GLOBAL_UNCERTAINTY_ASSIGNED_CONTEXT((#169))
GLOBAL_UNIT_ASSIGNED_CONTEXT((#172,#175,#173))
REPRESENTATION_CONTEXT('','3D')
);
#172=(
LENGTH_UNIT()
NAMED_UNIT(*)
SI_UNIT(.MILLI.,.METRE.)
);
#173=(
NAMED_UNIT(*)
SI_UNIT($,.STERADIAN.)
SOLID_ANGLE_UNIT()
);
#174=DIMENSIONAL_EXPONENTS(0.,0.,0.,0.,0.,0.,0.);
#175=(
CONVERSION_BASED_UNIT('degree',#177)
NAMED_UNIT(#174)
PLANE_ANGLE_UNIT()
);
#176=(
NAMED_UNIT(*)
PLANE_ANGLE_UNIT()
SI_UNIT($,.RADIAN.)
);
#177=PLANE_ANGLE_MEASURE_WITH_UNIT(PLANE_ANGLE_MEASURE(0.01745329252),#176);
#178=SHAPE_DEFINITION_REPRESENTATION(#179,#180);
#179=PRODUCT_DEFINITION_SHAPE('',$,#182);
#180=SHAPE_REPRESENTATION('',(#108),#170);
#181=PRODUCT_DEFINITION_CONTEXT('part definition',#186,'design');
#182=PRODUCT_DEFINITION('1011150_3D','1011150_3D',#183,#181);
#183=PRODUCT_DEFINITION_FORMATION('',$,#188);
#184=PRODUCT_RELATED_PRODUCT_CATEGORY('1011150_3D','1011150_3D',(#188));
#185=APPLICATION_PROTOCOL_DEFINITION('international standard',
'automotive_design',2009,#186);
#186=APPLICATION_CONTEXT(
'Core Data for Automotive Mechanical Design Process');
#187=PRODUCT_CONTEXT('part definition',#186,'mechanical');
#188=PRODUCT('1011150_3D','1011150_3D',$,(#187));
#189=PRESENTATION_STYLE_ASSIGNMENT((#190));
#190=SURFACE_STYLE_USAGE(.BOTH.,#191);
#191=SURFACE_SIDE_STYLE('',(#192));
#192=SURFACE_STYLE_FILL_AREA(#193);
#193=FILL_AREA_STYLE('',(#194));
#194=FILL_AREA_STYLE_COLOUR('',#195);
#195=COLOUR_RGB('',0.752941176470588,0.752941176470588,0.752941176470588);
ENDSEC;
END-ISO-10303-21;
